Stop Censorship
 
 

 
 1-9 a b c d e f g h i j k l m n o p q r s t u v w x y z
   Supernaturals - Smile Tab    

Supernaturals, The - "Smile"
Written 1997 by James McColl/Alan Tilston
From the album "It Doesn`t Matter Anymore" on Food records
Transcribed by Richard W and Ant.


Intro:
E:----------------------------
b:----------------------------
g:--7-7-7--6-6--4-4--2-2------
d:--7-7-7--6-6--4-4--2-2------
a:----5-5--4-4--2-2--0-0------
e:----------------------------


There is basically just one progression throughout the song.

Guitar:
E:--2--2---2--2---3--3---0-----
b:--3--3---3--3---0--0---2-----
g:--2--2---2--2---0--0---2-----
d:--0--0---4--4---0--0---2-----
a:---------4--4---2--2---0-----
e:----------------3--3---------

As far as I can work out, the Piano sequence is
D F#m G A D F#m G A
Every silver lining has a cloud...

PRE-CHORUS
G A D
See the lines around my eyes,
F# D A
See the sarcasm in my smile,

FILL: POST-CHORUS:
E:-------------- -x---------------
b:-------------- play -x---------------
g:--0----------- main -x-----6-x-7-x-9-
d:----4-2-0----- riff -x-7-x-4-x-5-x-7-
a:----------0--- -x-5-x-----------
e:-------------- -x---------------

ENDING ("Do do"): E F G A

That`s it. Full lyrics can be found at
The Original Supernaturals Fan-page:

http:/www.geocities.com/kesmaster.geo

Let`s get more Supernaturals on the web!