Stop Censorship
 
 

 
 1-9 a b c d e f g h i j k l m n o p q r s t u v w x y z
   Swan Lee - Enter Tab    

TAB Swan Lee - Enter By Martin Exner



Intro:
G D G D
E------------------------------------------------------------------
H------------------------------------------------------------------
G------------------------------------------------------------------
D-----------------4-4-4-5-5-5-5-5-----------------4-4-4-5-5-5-5-5--
A-4-4-4-5-5-5-5-5-3-3-3-3-3-3-3-3-4-4-4-5-5-5-5-5-3-3-3-3-3-3-3-3--
E-3-3-3-3-3-3-3-3-----------------3-3-3-3-3-3-3-3------------------


Vers:
G D G D
E------------------------------------------------------------------
H------------------------------------------------------------------
G------------------------------------------------------------------
D-----------------4-4-4-5-5-5-5-5-----------------4-4-4-5-5-5-5-5--
A-4-4-4-5-5-5-5-5-3-3-3-3-3-3-3-3-4-4-4-5-5-5-5-5-3-3-3-3-3-3-3-3--
E-3-3-3-3-3-3-3-3-----------------3-3-3-3-3-3-3-3------------------
Can you hear me...
G D G G
E------------------------------------------------------------------
H------------------------------------------------------------------
G------------------------------------------------------------------
D-----------------4-4-4-5-5-5-5-5----------------------------------
A-4-4-4-5-5-5-5-5-3-3-3-3-3-3-3-3-4-4-4-5-5-5-5-5-4-4-4-5-5-5-5-5--
E-3-3-3-3-3-3-3-3-----------------3-3-3-3-3-3-3-3-3-3-3-3-3-3-3-3--



Brigde:
Am C D
E------------------------------------------------------------------
H------------------------------------------------------------------
G-----------------2-2-2-2-2-2-2-2-2-2-2-2-2-2-2-2------------------
D-2-2-2-2-2-2-2-2-0-0-0-0-0-0-0-0-0-0-0-0-0-0-0-0------------------
A-0-0-0-0-3-3-3-3--------------------------------------------------
E------------------------------------------------------------------
Play me once again...


Chorus:
E F# E F#
E------------------------------------------------------------------
H------------------------------------------------------------------
G-1-1-1-1-1-1-1-1-3-3-3-3-3-3-3-3-1-1-1-1-1-1-1-1-3-3-3-3-3-3-3-3--
D-2-2-2-2-2-2-2-2-4-4-4-4-4-4-4-4-2-2-2-2-2-2-2-2-4-4-4-4-4-4-4-4--
A-2-2-2-2-2-2-2-2-4-4-4-4-4-4-4-4-2-2-2-2-2-2-2-2-4-4-4-4-4-4-4-4--
E------------------------------------------------------------------
Come with me...
E F# G#m
E---------------------------------6-7-6-7-4-7---7------------------
H---------------------------------------------5---4----------------
G-1-1-1-1-1-1-1-1-3-3-3-3-3-3-3-3----------------------------------
D-2-2-2-2-2-2-2-2-4-4-4-4-4-4-4-4----------------------------------
A-2-2-2-2-2-2-2-2-4-4-4-4-4-4-4-4----------------------------------
E------------------------------------------------------------------
E F E F#
E------------------------------------------------------------------
H------------------------------------------------------------------
G-1-1-1-1-1-1-1-1-3-3-3-3-3-3-3-3-1-1-1-1-1-1-1-1-3-3-3-3-3-3-3-3--
D-2-2-2-2-2-2-2-2-4-4-4-4-4-4-4-4-2-2-2-2-2-2-2-2-4-4-4-4-4-4-4-4--
A-2-2-2-2-2-2-2-2-4-4-4-4-4-4-4-4-2-2-2-2-2-2-2-2-4-4-4-4-4-4-4-4--
E------------------------------------------------------------------
E F# G#m D hold-->
E-------------------------------------------------2----------------
H-------------------------------------------------3----------------
G-1-1-1-1-1-1-1-1-3-3-3-3-3-3-3-3-4-4-4-4-4-4-4-4-2----------------
D-2-2-2-2-2-2-2-2-4-4-4-4-4-4-4-4-6-6-6-6-6-6-6-6-0----------------
A-2-2-2-2-2-2-2-2-4-4-4-4-4-4-4-4-6-6-6-6-6-6-6-6------------------
E------------------------------------------------------------------


Solo (1. Guitar)

E-------------------------------------6-7-6-7-4-7---7--------------
H---------------4-4-4-5-4-------------------------5---4------------
G-------------------------4---------3------------------------------
D-----4-6-4---------------------4-5--------------------------------
A-1-2-------1-2-------------1-2------------------------------------
E------------------------------------------------------------------


Solo (2. guitar)

E------------------------------------------------------------------
H-----------------------------------------5-2----------------------
G---------------------------------------------3--------------------
D---------------------------------------4-------4------------------
A-------2-2-2---------4-2-1---2-2-2--------------------------------
E-0-0-0-------0-0-2-2-------2-------0-0----------------------------
hold--> hold-->
E-------------------------------4----------------------------------
H---------------------------0-4------------------------------------
G-------------------------1----------------1-----------------------
D------------------------------------------2-----------------------
A-2-2-2---------4-2-1----------------------2-----------------------
E-------0-0-2-2-------2-4------------------------------------------


By Martin Exner (martin_exner@email.com)