Stop Censorship
 
 

 
 1-9 a b c d e f g h i j k l m n o p q r s t u v w x y z
   System Bypass - Can/%09 Play The Guitar Blues Tab    

E|--------555-4/555-|-88---------------|------------------|------4/555-4/555-||
B|----5-7-555-4/555-|-88----75*--5-----|-5----5----5----5-|------4/555-4/555-||
G|--6---------------|-------75*----7b--|---7b---7b---7b---|7-5-3*------------||
D|------------------|------------------|------------------|------------------||
A|------------------|------------------|------------------|------------------||
E|------------------|------------------|------------------|------------------||

E|-88--5-3-1*-------|7-5xx-8-5---------|------------------|------------------||
B|-88--5-3-1*-------|----------7-5xx---|------------------|------------------||
G|------------------|------------------|-7-5--------------|------------------||
D|------------------|------------------|-----7-5----------|------------------||
A|------------------|------------------|---------7-5------|2-2-2-4-5-4-2-0-40||
E|------------------|------------------|-------------8xxxx|------------------||

E|------------------|------------------|------------------|--Drums-and-Bass--||
B|------------------|------------------|------------------|------------------||
G|------------------|------------------|------------------|------------------||
D|------------------|------------------|------------------|------------------||
A|-2-2-2-4-5-4-2-0--|4-0---------------|----4-6-7-6-4-2-6-2*-----------------||
E|------------------|----2-4-5-4-2-0-4-|-0--2-4-5-4-2-0-4-0*-----------------||

E|------------------|------------------|------------------|------------------||
B|-14b-14b-14b-14b--|-14b-14b-14b-14b--|-14b-14b-14b-14b--|-14rs-14-12t-5-7b-||
G|------------------|------------------|------------------|------------------||
D|------------------|------------------|------------------|------------------||
A|------------------|------------------|------------------|------------------||
E|------------------|------------------|------------------|------------------||

E|------------------|------------------|------------------|------------------||
B|-5h7-5h7-5h7-5h7--|-7-5--------------|------------------|------------------||
G|------------------|-----7-5----------|------------------|------------------||
D|------------------|---------7-5------|------------------|------------------||
A|------------------|-------------7-5--|------------------|-------------9-11-||
E|------------------|------------------|--0h3-0h3-0h3-0h3-|-0h3/11-9-11------||

E|------------------|------------------|-4/555-4/555------|------------------||
B|------------------|------------------|-4/555-4/555------|-7-5-0-3/5--------||
G|------------------|------------------|------------------|-7-5-0-3/5--------||
D|-9-11b-11-9-------|------------------|------------------|------------------||
A|------------11-9--|---------5-5t-----|------------------|------------------||
E|------------------|-11-9t/5---3t-----|------------------|------------------||

E|------------------|------------------|------------------|------------------||
B|------------------|------------------|-----7-5---7-5----|-----7-5---7-5----||
G|------------------|------------------|-----7-5---7-5----|-----7-5---7-5----||
D|-----555-4/555----|-4/588------------|-7-7-----7--------|-7-7-----7--------||
A|-----555-4/555----|-4/588--8-5-0-3/5-|------------------|------------------||
E|------------------|--------8-5-0-3/5-|------------------|------------------||

E|------------------|------------------|------------------|------------------||
B|-----7-5---7-5----|------9-7----9-7--|------9-7---9-7---|-----9-7---9-7----||
G|-----7-5---7-5----|------9-7----9-7--|------9-7---9-7---|-----9-7---9-7----||
D|-7-7-----7--------|--9-9------9------|--9-9-----9-------|-9-9-----9--------||
A|------------------|------------------|------------------|------------------||
E|------------------|------------------|------------------|------------------||

E|------------------|------------------|------------------|------------------||
B|-----5-3---5-3----|-----5-3---5-3----|-----5-3---5-3----|------------------||
G|-----5-3---5-3----|-----5-3---5-3----|-----5-3---5-3----|------------------||
D|-5-5-----5--------|-5-5-----5--------|-5-5-----5--------|-3-3-3h5----------||
A|------------------|------------------|------------------|------------------||
E|------------------|------------------|------------------|------------------||

E|------------------|------------------|------------------|------------------||
B|------------------|------------------|------------------|------------------||
G|-----5-7-8-7-5----|------------------|--------5-7-8-7-5-|------------------||
D|-5-7--------------|--7-5-7-5---------|-7--5-7-----------|-7-5-7-5----------||
A|------------------|----------7-6-5-0-|------------------|---------7-6-5----||
E|------------------|------------------|------------------|------------------||

E|------------------|------------------|-----7--------5---|----3-----2*------||
B|------------------|------------------|------------------|----------0*------||
G|------------------|------------------|-7------7--5-----5|-3-----3--0*------||
D|--------7---7-5-3-|------------------|------------------|----------0*------||
A|------------------|----5-3-0h3-5t----|------------------|----------2*------||
E|--8-5-0-----------|------------------|------------------|----------3*------||