Stop Censorship
 
 

 
 1-9 a b c d e f g h i j k l m n o p q r s t u v w x y z
   System Of A Down - .36 Tab    

drop tunings (CGCFAD)

STEEEEEEEEEEEEEEEEEEEEEEEEEEEEEEEEEEEEEEEEEEEEEEEEEEEEEEEEEVVVE!

(light distortion)
1x
D---0--0---0---0---0---0---0--0-0-----|
A-0---3---2---4---0---3---2---2/6-----|
F-------------------------------------|
C-------------------------------------|
G-------------------------------------|
C-------------------------------------|

2x(heavy distortion)
P.M-----------------------------------|
D-------------------------------------|
A-------------------------------------|
F-------------------------------------|
C-------------------------------------|
G-100010001000100010001000100010001000|
C-100010001000100010001000100010001000|


3x
D-0-0-0-0-0-0-0-0-----------------------|
A-0-0-3-3-2-2-4-4-----------------------|
F---------------------------------------|
C---------------------------------------|
G---------------------------------------|
C---------------------------------------|
1x
D-0-0-0-0-0-0-0-0-----------------------|
A-0-0-3-3-2-2-2/6-----------------------|
F---------------------------------------|
C---------------------------------------|
G---------------------------------------|
C---------------------------------------|

2x
D-------------------------------------|
A-------------------------------------|
F-------------------------------------|
C-------------------------------------|
G-100010001000100010001000100010001000|
C-100010001000100010001000100010001000|

1x
D-0-0-0-0-0-0-0-0-----------------------|
A-0-0-3-3-2-2-4-4-----------------------|
F---------------------------------------|
C---------------------------------------|
G---------------------------------------|
C---------------------------------------|

1x
D-------------------------------------|
A-------------------------------------|
F-------------------------------------|
C-------------------------------------|
G-100010001000100010001000100010001000|
C-100010001000100010001000100010001000|

D-0--0---0--0-0-----------------------|
A-0--3---2--2/6-----------------------|
F-------------------------------------|
C-------------------------------------|
G-------------------------------------|
C-------------------------------------|

D-------------------------------------|
A-------------------------------------|
F-------------------------------------|
C-------------------------------------|
G-100010001000100010001000100010001000|
C-100010001000100010001000100010001000|


|||||||||| | /|
| | / |
| | / |
||||||||| | / |
| | / |
| | / |
| | / |
| . | / |