Stop Censorship
 
 

 
 1-9 a b c d e f g h i j k l m n o p q r s t u v w x y z
   System Of A Down - .36 Tab    

Band: System Of A Down
Song: .36


|--------0--------0--------0--------0-------0--------0--------0---0-----|
|---0--------3--------2--------4-------0--------3--------2--------3/6---|
|----------------------------------------------------------------------------|
|----------------------------------------------------------------------------|
|----------------------------------------------------------------------------|
|----------------------------------------------------------------------------|

P.M.-------------------------------------------------
|----------------------------------------------------------|
|----------------------------------------------------------|
|----------------------------------------------------------| repeat x4
|----------------------------------------------------------|
|----------------------------------------------------------|
|---6---5---3---6---5---3---6---5---3---6---5---3---|

|---0---0---0---0---0---0---0---0---|---0---0---0---0---0---0---0---0---|
|---0---0---3---3---2---2---4---4---|---0---0---3---3---2---2---6---6---|
|----------------------------------------|---------------------------------------|
|----------------------------------------|---------------------------------------|
|----------------------------------------|---------------------------------------|
|----------------------------------------|---------------------------------------|

P.M.-------------------------------------------------
|----------------------------------------------------------|
|----------------------------------------------------------|
|----------------------------------------------------------| repeat x4
|----------------------------------------------------------|
|----------------------------------------------------------|
|---6---5---3---6---5---3---6---5---3---6---5---3---|

|---0---0---0---0---0---0---0---0---|
|---0---0---3---3---2---2---4---4---|
|----------------------------------------|
|----------------------------------------|
|----------------------------------------|
|----------------------------------------|

P.M.-------------------------------------------------
|----------------------------------------------------------|
|----------------------------------------------------------|
|----------------------------------------------------------| repeat x2
|----------------------------------------------------------|
|----------------------------------------------------------|
|---6---5---3---6---5---3---6---5---3---6---5---3---|

|---0---0---0---0---0---0---0------------|
|---0---0---3---3---2---2---36---61---|
|--------------------------------------------|
|--------------------------------------------|
|--------------------------------------------|
|--------------------------------------------|

P.M.-------------------------------------------------
|----------------------------------------------------------|
|----------------------------------------------------------|
|----------------------------------------------------------| repeat x2
|----------------------------------------------------------|
|----------------------------------------------------------|
|---6---5---3---6---5---3---6---5---3---6---5---3---|

Thatís all of the song!
Itís all in order.