Stop Censorship
 
 

 
 1-9 a b c d e f g h i j k l m n o p q r s t u v w x y z
   System Of A Down - .36 Tab    

System of a down
Steal this album
36
Tuning drop D one step down:C,G,C,f,a,d
this song is easy but fun
/=SLIDE
^=pull off
INTRO:

d--0--0--0--0--0--0--0--------------
a-0--3--2--4--0--3--2-2/6-----------
f-----------------------------------
C-----------------------------------
G-----------------------------------
C-----------------------------------


CHORUS(PLAY FAST BUT STAY IN BEAT):

d----------------------------
a----------------------------
f----------------------------
C----------------------------
G-6^5^0000-------------------
C-6^5^0000-------------------
PM.........
JUST KEEP PLAYING THIS TILL SERJ STOPS SINGING THEN PLAY

VERSE:

d-0-0-3-3-2-2-4-4--0-0-3-3-2-2-6-6-----------------
a-0-0-3-3-2-2-4-4--0-0-3-3-2-2-6-6-----------------
f--------------------------------------------------
C--------------------------------------------------
G--------------------------------------------------
C--------------------------------------------------

d-0-0-3-3-2-2-4-4--0-0-3-3-2-2---------------------
a-0-0-3-3-2-2-4-4--0-0-3-3-2-2/6-------------------
f--------------------------------------------------
C--------------------------------------------------
G--------------------------------------------------
C--------------------------------------------------

ENDING:
d-0-0-3-3-2-2-4-4----------------------------------
a-0-0-3-3-2-2-4-4----------------------------------
f--------------------------------------------------
C--------------------------------------------------
G------------------[-6^5^0000-]-----------------------
C------------------[-6^5^0000-]-----------------------
pm .....
PLAY WHATS IN THE[] 7 TIMES

d--0-0-3-3-2-2-------------------------------------
a--0-0-3-3-2-2/6-----------------------------------
f--------------------------------------------------
C--------------------------------------------------
G------------------[-6^5^0000-]-----------------------
C------------------[-6^5^0000-]-----------------------
Pm .....
PLAY WHATS IN THE[] TILL END OF THE SONG