Stop Censorship
 
 

 
 1-9 a b c d e f g h i j k l m n o p q r s t u v w x y z
   System Of A Down - .36 Tab    

Ok, I have worked, and worked, and worked on this song. I have viewed various tabs of this song and found flaws in them, So I listened by ear,...you play all of this in order. I worked really hard on it so please rate it.

Intro (I love this part.)
----0-----0------0-----0----------0-----0-----0----------0--------------------------
-0-----3-----2------4----------0-----3-----2------2/6-------------------------------
------------------------------------------------------------------------------------
------------------------------------------------------------------------------------
------------------------------------------------------------------------------------
------------------------------------------------------------------------------------

Television is disgrace......
------------------------------------------------------------------------------------
------------------------------------------------------------------------------------
------------------------------------------------------------------------------------
------------------------------------------------------------------------------------
------------------------------------------------------------------------------------
---1-0-0-0--1-0-0-0-1-0-0-0-1-0-0-0-1-0-0-0-1-0-0-0-1-0-0-0-1-0-0-0-----------------

Life..so..necessary
------------------------------------------------------------------------------------
------------------------------------------------------------------------------------
------------------------------------------------------------------------------------
------------------------------------------------------------------------------------
------------------------------------------------------------------------------------
---0-0-3-3-2-2-4-4--0-0-3-3-2-2-6-6---0-0-3-3-2-2-4-4--0-0-3-3-2-2-2/6--------------

Television is disgrace......(agian)
------------------------------------------------------------------------------------
------------------------------------------------------------------------------------
------------------------------------------------------------------------------------
------------------------------------------------------------------------------------
------------------------------------------------------------------------------------
---1-0-0-0--1-0-0-0-1-0-0-0-1-0-0-0-1-0-0-0-1-0-0-0-1-0-0-0-1-0-0-0-----------------

Now will you live at your own pace?

------------------------------------------------------------------------------------
------------------------------------------------------------------------------------
------------------------------------------------------------------------------------
------------------------------------------------------------------------------------
------------------------------------------------------------------------------------
---0-0-3-3-2-2-4-4--0-0-3-3-2-2-6-6---0-0-3-3-2-2-4-4--0-0-3-3-2-2-2/6--------------

It is kind of a repetitive song but it is VERY fun to play. I really enjoyed learning it. You gotta listen to the actual song to get the rythym. In the song the drums are very loud and drain out some of the guitar, so be careful. Later

"War, F*ck the system, F*ck the system"
- System of a down