Stop Censorship
 
 

 
 1-9 a b c d e f g h i j k l m n o p q r s t u v w x y z
   System Of A Down - A.T.W.A Tab    

Band : System of a down
Song : A.T.W.A.
Album : Toxicity
Tabber : Jared McLendon


Tuning : Drop C

ight i know this is 100% correct cuz its an easy song to learn by ear and i alwayz play it with my band
and get plenty of applause and crap. check out my bands web page www.geocities.com/chopyosuey/goatfetus.html
heres ATWA 100% correct. enjoy! DOWN WITH THE SYSTEM!



Intro/Verse
------------------------------------------------------
------------------------------------------------------
--3------2-----5-----7------8--------7-----5------3---
------------------------------------------------------
------------------------------------------------------
5---5-3----3-7---7-8--8--10----10-8----8-7---7-5------




Chorus (listen for exact strumming)
You dont...I Dont feel..
---------------------------------------------
---------------------------------------------
---------------------------------------------
5555555----5555555---------------------------
5555555----5555555---------------------------
5555555----5555555---------------------------


Going into solo part (listen for exact strumming)

i dont sleep! ANYMORE! i dont feel
-----------------------------------------------
-----------------------------------------------
------------------------------------5-5-5-5----
5-5-5-5-5-5--6----------------------5-5-5-5----
5-5-5-5-5-5--6------x3--------------5-5-5-5----
5-5-5-5-5-5--6----------------------5-5-5-5----


SOLO: ~ - bend back and forth really fast (listen for exact strumming)

-----------------------------------------------
-----------------------------------------------
12--10--14--15--17--15--14--12-----------------
xx--xx--xx--xx--xx--xx--xx--xx-----------------
10--8---12--13--15--13--12--10-----------------
-----------------------------------------------

na na na na na
--------------------------------------------------
--------------------------------------------------
12~-10~-14~-15~-17~-15~-14~-12~-------------------
--------------------------------------------------
--------------------------------------------------
--------------------------------------------------

Then the hard part of HEY YOU SEE ME!(listen for exact strumming)


----------------------------------------------------
----------------------------------------------------
----------------------------------------------------
5--3---7--8--10--8--7--5----------------------------
5--3---7--8--10--8--7--5----x2----------------------
5--3---7--8--10--8--7--5----------------------------

Then the Chorus. Thats it! Email me if u have any questions at chopyosuey@yahoo.com

Please rate. took me a while :-D DOWN WITH THE SYSTEM!