Stop Censorship
 
 

 
 1-9 a b c d e f g h i j k l m n o p q r s t u v w x y z
   System Of A Down - A.T.W.A Tab    

ATWA

Intro/Verse

|----------------------------------------------------------|
|----------------------------------------------------------|
|---3------2------5------7-------8-------7------5------3---|
|----------------------------------------------------------|
|----------------------------------------------------------|
|5----5-3----3-7----7-8----8-10----10-8----8-7----7-5----5-|



Chorus


Pt. 1 Pt.2
|--------------------------------|---------|
|--------------------------------|---------|
|--------------------------------|---------|
|5555555-5555555-5555555-5555555-|-5-5-5-6-|
|5555555-5555555-5555555-5555555-|-5-5-5-6-|
|5555555-5555555-5555555-5555555-|-5-5-5-6-|

|-------------------------------------------|
|-------------------------------------------|
|-------------------------------------------|
|55-5-33-3-77-7-88-8-1010-10-88-8-77-7-55-5-|
|-------------------------------------------|
|-------------------------------------------|

|-------------------6666-8888-6666---------------|
|8888-6666-10101010----------------10101010-8888-|
|------------------------------------------------|
|------------------------------------------------|
|------------------------------------------------|
|------------------------------------------------|

|------------------|
|------------------|
|05-3-7-8-10-8-7-0-|
|05-3-7-8-10-8-7-0-|
|05-3-7-8-10-8-7-0-|