Stop Censorship
 
 

 
 1-9 a b c d e f g h i j k l m n o p q r s t u v w x y z
   System Of A Down - A.T.W.A Tab    

This song rocks, and its so fun to play, this is my first tab so don’t be to harsh.
Any questions e-mail me at Blinkdood1504@hotmail.com -Bobert

C,G,C,F,A,D
Intro
Clean
Guitar 1
D|---------------|
A|---------------|
F|-5---7---4---2-|
C|-7---9---5---3-|
G|-0---0---0---0-|
C|---------------|

Guitar 2 (after first time threw intro)
D|---------------------------------------------|
A|---------------------------------------------|
F|---------------------------------------------|
C|---------------------------------------------|
G|---------------------------------------------|
C|-4-4-4-4-44/6-6-6-6-664-4-4-4-442-2-2-2-22-|

Guitar 3 (after second time threw intro)
D|-77777777-99999999-77777777-55555555-|
A|-------------------------------------|
F|-------------------------------------|
C|-------------------------------------|
G|-------------------------------------|
C|-------------------------------------|

Riff 1
All Guitars
D|----------------------------------------------------------------------------------|
A|----------------------------------------------------------------------------------|
F|----------------------------------------------------------------------------------|
C|----------------------------------------------------------------------------------|
G|-8-8-8-8-8-8-8--7-7-7-7-7-7-7-7--10-10-10-10-10-10-10-10--12-12-12-12-12-12-12-12-|
C|-8-8-8-8-8-8-8--7-7-7-7-7-7-7-7--10-10-10-10-10-10-10-10--12-12-12-12-12-12-12-12-|

Riff 2
All Guitars
D|---------------------------------------------------------------|
A|---------------------------------------------------------------|
F|---------------------------------------------------------------|
C|---------------------------------------------------------------|
G|---------------------------------------------------------------|
C|-8-8-8-8-8-8-7-7-7-7-7-7-7-10-10-10-10-10-10-12-12-12-12-12-12-|

Riff 3 - Heavy
All Guitars
“Wake Up!”
D|---------------------------------------------------------------|
A|---------------------------------------------------------------|
F|---------------------------------------------------------------|
C|---------------------------------------------------------------|
G|-88---8888-77---7777-88---8888-77---7777-88--------------------|
C|-88---8888-77---7777-88---8888-77---7777-88--------------------|

Riff 4 – Slow
Guitar 1
“…Trust in…”
D|-777777777777-55555555555-777777777-9999999999-|
A|-----------------------------------------------|
F|-----------------------------------------------|
C|-----------------------------------------------|
G|-----------------------------------------------|
C|-----------------------------------------------|

Guitar 2
Palm Muted
D|-----------------------------------|
A|-----------------------------------|
F|-----------------------------------|
C|-------12----------------14--------|
C|-----12--12---12-------14--14---14-|
C|-0-10------10-----0-12-------12----|

Bridge
“…Forsaken me…”
D|-------------|
A|-------------|
F|-2------5----|
C|-2------5----|
G|-0--3---3--3-|
C|----3------3-|

Ending
Play each note with the each word said and hold last note
”When Ang-els de-serve to die”
D|---------------|
A|---------------|
F|---------------|
C|---------------|
G|-3-3-3-3-3-3-3-|
C|-3-3-3-3-3-3-3-|

ORDER
Guitar 1 Intro 4x (0:00)
Guitar 2 Intro 3x (0:08)
Guitar 3 Intro 2x (0:15)
Riff 1 2x (0:30)
Riff 2 2x (0:37)
Riff 3 2x (0:44)
Riff 4 2x (1:00)
Riff 1 2x (1:15)
Riff 2 first ½ (1:22)
Riff 3 2x (1:24)
Riff 4 4x (1:40)
3 second Pause (2:08)
Riff 1 2x (2:11)
Riff 2 4x (2:19)
Bridge 5x (2:34)
End 1x (3:16)