Stop Censorship
 
 

 
 1-9 a b c d e f g h i j k l m n o p q r s t u v w x y z
   System Of A Down - A.T.W.A Tab    

Band: System of a Down
Album: Toxicity
Song: Track 05 "Chop Suey!"
by: Justin Mendoza (ROCK!!!!)
Intro X4
|----------------------------------------------------------------------|
|----------------------------------------------------------------------|
|--7-7-7-7-7-7-7-7--9-9-9-9-9-9-9-9--5-5-5-5-5-5-5-5--3-3-3-3-3-3-3-3--|
|--7-7-7-7-7-7-7-7--9-9-9-9-9-9-9-9--5-5-5-5-5-5-5-5--3-3-3-3-3-3-3-3--|
|--7-7-7-7-7-7-7-7--9-9-9-9-9-9-9-9--5-5-5-5-5-5-5-5--3-3-3-3-3-3-3-3--|

Kick In X2
|--------------------------------------|
|--------------------------------------|
|--3-3-3-3--2-2-2-2--4-4-4-4--6-6-6-6767676--|
|--3-3-3-3--2-2-2-2--4-4-4-4--6-6-6-6767676--|
|--3-3-3-3--2-2-2-2--4-4-4-4--6-6-6-6767676--|

After those two it comes into this, the same notes but let it ring a bit longer

X2
|--3--3--2--2--4--4--6--6--|
|--3--3--2--2--4--4--6--6--|
|--3--3--2--2--4--4--6--6--|

Chorus "Wake Up"
|---------------------------------------------------------------------------|
|---------------------------------------------------------------------------|
|-3-3----3-3-3-3-3-2-2----2-2-2-2-2-2-3-3----3-3-3-3-3-2-2----2-2-2-2-2-3-3-|
|-3-3----3-3-3-3-3-2-2----2-2-2-2-2-2-3-3----3-3-3-3-3-2-2----2-2-2-2-2-3-3-|
|-3-3----3-3-3-3-3-2-2----2-2-2-2-2-2-3-3----3-3-3-3-3-2-2----2-2-2-2-2-3-3-|
Loop X2

Angels deserve to die in my...
|----------------------------------------------------------------------|
|----------------------------------------------------------------------|
|----------------------------------------------------------------------|
|--7-7-7-7-7-7-7-7--9-9-9-9-9-9-9-9--5-5-5-5-5-5-5-5--3-3-3-3-3-3-3-3--|
|--7-7-7-7-7-7-7-7--9-9-9-9-9-9-9-9--5-5-5-5-5-5-5-5--3-3-3-3-3-3-3-3--|

Kick In X2
|--------------------------------------------|
|--------------------------------------------|
|--3-3-3-3--2-2-2-2--4-4-4-4--6-6-6-6767676--|
|--3-3-3-3--2-2-2-2--4-4-4-4--6-6-6-6767676--|
|--3-3-3-3--2-2-2-2--4-4-4-4--6-6-6-6767676--|

After those two it comes into this, the same notes but let it ring a bit longer

X2
|--3--3--2--2--4--4--6--6--|
|--3--3--2--2--4--4--6--6--|
|--3--3--2--2--4--4--6--6--|

:::ORDER OF PLAY::::
1. Intro
2. Kick In
3. Chorus
4. Angels deserve to die
5. Kick In
6. Chorus
7. Angels deserve to die
8. Kick In
9. Extra Kick in: Below

In your eyes forsaken me, In your thoughts forsaken me....
|--3----2----4----6--|
|--3----2----4----6--|
|--3----2----4----6--|

pls. rate this pls i need to know how im doing