Stop Censorship
 
 

 
 1-9 a b c d e f g h i j k l m n o p q r s t u v w x y z
   System Of A Down - A.T.W.A Tab    

Chop Suey! (für Brink)

C-G-C-F-A-D

Intro:(mit der akustikgitarre)
-----------
-----------
-5-7-4-2-
-7-9-5-3-
-0-0-0-0-
-----------

--------------------------------------------------------
--------------------------------------------------------
-5---5---5---7---7---7---4---4---4---2---2---2----
---7---7---7---9---9---9---5---5---5---3---3---3--
--------------------------------------------------------
--------------------------------------------------------
*************************************
--------------
--------------
-5-7-4--9---
-7-9-5-11---
-0-0-0--0---
--------------

Riff1:
-------------------------------------------------------
-------------------------------------------------------
-------------------------------------------------------
-8-8-7-7-10-10-12-12-8-8-7-7-10-10-12-12-
-8-8-7-7-10-10-12-12-8-8-7-7-10-10-12-12-
-8-8-7-7-10-10-12-12-8-8-7-7-10-10-12-12-

---------------------------------------------------------------
---------------------------------------------------------------
---------------------------------------------------------------
-88888877777710101010101012121212121212-----
-88888877777710101010101012121212121212-----
-88888877777710101010101012121212121212-----
***************************************-----

Verse:
"Wake up"
--------------------------------------------------------------------
--------------------------------------------------------------------
--------------------------------------------------------------------
-8-7---8-8-8-8-8-8-8-8-8-8-7----7-7-7-7-7-7-7-7-7-7-6-
-8-7---8-8-8-8-8-8-8-8-8-8-7----7-7-7-7-7-7-7-7-7-7-6-
-8-7---8-8-8-8-8-8-8-8-8-8-7----7-7-7-7-7-7-7-7-7-7-6-

Chorus:
"I don´t think..."
---------------------------------------------------------------
---------------------------------------------------------------
-5--------5----7---------7----4---------4----2--------2---
---7---7----7----9----9---9-----5---5----5----3---3---3-
-----0---------------0--------------0---------------0--------
---------------------------------------------------------------

Chorus2= Chorus1 + Intro

Bridge
---------------------------------------------------------------
---------------------------------------------------------------
---------------------------------------------------------------
-88888877777710101010101012121212121212-
-88888877777710101010101012121212121212-
-88888877777710101010101012121212121212-

---------------------------------------------------------------
---------------------------------------------------------------
---------------------------------------------------------------
-88888877777710101010101012121212121212-
-88888877777710101010101012121212121212-
-88888877777710101010101012121212121212-
*****************************************************

"Why have you forsaken me..."
----------------------
----------------------
------8~-------8~-
-5~--8~--8~--8~-
-5~--6~--8~--6~-
-5~-------8~-------