Stop Censorship
 
 

 
 1-9 a b c d e f g h i j k l m n o p q r s t u v w x y z
   System Of A Down - A.T.W.A Tab    

system of a down- ATWA i watched some live versions, trust me this is right, rate me at least a 4, i`ll be grateful
comments and questions email me at: antihero1189@netscape.net
I am positive on this song and this tab is correct. he plays this way live
The tuning is drop C = C G C F A D
h Hammer On
p Pull Off
b Bend String Up
r Return Bend
/ Slide Up
Slide Down
x Palm Mute

Intro
x4
D|---------------------------------------------------|
A|---------------------------------------------------|
F|-----3-----2-----5-----7------8------7-----5-----3-|
C|---------------------------------------------------|
G|---------------------------------------------------|
C|-5-5---53---3/7---7/8---8/10---108---87---75---|


Verse
x8
D|---------------|
A|---------------|
F|---------------|
C|-3-3-3-3-3-3-3-|
G|-3-3-3-3-3-3-3-|
C|-3-3-3-3-3-3-3-|

Interlude
x3
D|---------------------------------------------------|
A|---------------------------------------------------|
F|-----1-----0-----3-----5-----6-----5-----3-----1---|
C|---------------------------------------------------|
G|---------------------------------------------------|
C|--3-----1-----5-----6-----8-----6-----5-----3----3-|

pre-chorus
x7 x1
D|-----------------|---------------|
A|-----------------|---------------|
F|-----------------|---------------|
C|-3-3-3-3-3-3-3---|---3-3-3-3/4---|
G|-3-3-3-3-3-3-3---|---3-3-3-3/4---|
C|-3-3-3-3-3-3-3---|---3-3-3-3/4---|


chorus
x4
D|-------------|
A|-------------|
F|-------------|
C|-3-3-3-3/4---|
G|-3-3-3-3/4---|
C|-3-3-3-3/4---|


solo

D|----------------------------------------------------------------------------|
A|----------------------------------------------------------------------------|
F|10--10/8-8--8/12-12--12/13-13--13/15--15--15/13-13--13/12--12--12/10-10-|
C|-x--x/x-x--x/x--x----x/x--x----x/x---x----x/x---x----x/x--x----x/x--x--|
G|-8---8/6-6--6/10--10-10/11-11-11/13-13--13/11--11-11/10-10--10/8--8--|
C|----------------------------------------------------------------------------|



x8
D|--------------------------------|
A|-10--8--12--13--15--13--12--10--|
F|--------------------------------|
C|--------------------------------|
G|--------------------------------|
C|--------------------------------|


x2
D|------|----------------------------------|
A|------|----------------------------------|
F|------|----------------------------------|
C|------|---3---1---5---6---8---6---5---3--|
G|------|---3---1---5---6---8---6---5---3--|
C|-12/3-|---3---1---5---6---8---6---5---3--|

pre-chorus heavy distortion
x7
D|-----------------|---------------|
A|-----------------|---------------|
F|-----------------|---------------|
C|-3-3-3-3-3-3-3---|---3-3-3-3/4---|
G|-3-3-3-3-3-3-3---|---3-3-3-3/4---|
C|-3-3-3-3-3-3-3---|---3-3-3-3/4---|


chorus
x4
D|-------------|
A|-------------|
F|-------------|
C|-3-3-3-3/4---|
G|-3-3-3-3/4---|
C|-3-3-3-3/4---|