Stop Censorship
 
 

 
 1-9 a b c d e f g h i j k l m n o p q r s t u v w x y z
   System Of A Down - A.T.W.A Tab    

Song: Chop Suey
Artist: System of a Down
Album: Toxicity
Tabber: Michael Holcomb (blade14o7@netscape.net)

Tuning: Drop C (CGCFAD)

This version is if you want to play it with one guitar player

INTRO: (0:00)
F|5-55-55-55555-55|5/7-7777-7777774|4-44444-444442-|2-22222-22222---|
C|7-77-77-77777-77|7/9-9999-9999995|5-55555-555553-|3-33333-33333---|x1
G|0-----0-----0---|0------0-----0--|0-----0-----0---|0-----0-----0-00|

F|5-----5----5----|7-----7----7----|4-----4----4----|2-----2----2----|
C|---7-----7---7--|---9-----9---9--|---5-----5---5--|---3-----3---3--|x1
G|----------------|----------------|----------------|----------------|
p.m........................................

tremelo picking in this section
D|8---------------|8---/10---------|7--------------/|12--------------|x1
A|10--------------|10--/12---------|8--------------/|13--------------|
tremelo picking in this section
D|12--------------|13--------------|10-------------/|13--------------|x1
A|13--------------|15--------------|12-------------/|15--------------|

those are 10`s those are 10`s + 12`s
G|-8-7-8-7-8-7-8-7-7-6-7-6-7-6-7-6-|10-910-910-910-9-1210121012101210|
C|-8-7-8-7-8-7-8-7-7-6-7-6-7-6-7-6-|10-910-910-910-9-1210121012101210|x2

those are 12`s
G|---------------------------------|---------------------------------|x2
C|-7-7-7-7-7-7-7-7-6-6-6-6-6-6-6-6-|-9-9-9-9-9-9-9-9-1212121212121212|

VERSE: (0:45)
G|87------87878787|76------76767676|x4
C|87------87878787|76------76767676|

CHORUS: (1:00)
F|5-------5-----5-|7-------7-----7-|4-------4-----4-|2-------2-----2-|
C|7---------7-----|9---------9-----|5---------5-----|3---------3-----|x1
G|0---0-------0---|0---0-------0---|0---0-------0---|0---0-------0---|
p.m................................................................

F|5-------5-----5-|7-------7-----7-|4-------4-----4-|2-------2-----2-|
C|7---------7-----|9---------9-----|5---------5-----|3---------3-----|x1
G|0---0-------0---|0---0-------0---|0---0-------0---|0---0-------0---|
p.m............................................... let ring........

INTERLUDE: (1:15) those are 10`s those are 10`s + 12`s
G|-8-7-8-7-8-7-8-7-7-6-7-6-7-6-7-6-|10-910-910-910-9-1210121012101210|
C|-8-7-8-7-8-7-8-7-7-6-7-6-7-6-7-6-|10-910-910-910-9-1210121012101210|x2

G|-8-7-8-7-8-7-8-7-8-7-8-7-8-7-8-7-|x1
C|-8-7-8-7-8-7-8-7-8-7-8-7-8-7-8-7-|

VERSE: (1:24)
G|87------87878787|76------76767676|x4
C|87------87878787|76------76767676|

CHORUS: (1:39)
tremelo picking in this section
D|8---------------|10--------------|7--------------/|12--------------|x2
A|10--------------|12--------------|8--------------/|13--------------|

INTERLUDE: (1:55)
tremelo picking in this section
D|12--------------|13--------------|10-------------/|13--------------|x1
A|13--------------|15--------------|12-------------/|15--------------|

tremelo picking in this section
D|12--------------|13--------------|10--------------|----------------|x1
A|13--------------|15--------------|12--------------|----------------|

BRIDGE: (2:12) those are 10`s those are 10`s + 12`s
G|-8-7-8-7-8-7-8-7-7-6-7-6-7-6-7-6-|10-910-910-910-9-1210121012101210|
C|-8-7-8-7-8-7-8-7-7-6-7-6-7-6-7-6-|10-910-910-910-9-1210121012101210|x2

those are 10`s those are 10`s + 12`s
G|-8-7-8-7-8-7-8-7-7-6-7-6-7-6-7-6-|10-910-910-910-9-1210121012101210|
C|-8-7-8-7-8-7-8-7-7-6-7-6-7-6-7-6-|10-910-910-910-9-1210121012101210|x2
p.m................................................................

those are 12`s
G|---------------------------------|---------------------------------|x2
C|-7-7-7-7-7-7-7-7-6-6-6-6-6-6-6-6-|-9-9-9-9-9-9-9-9-1212121212121212|

C|----------------|10------10--10-|5-------5---5-5-|10------10-10-10|
G|7-------7---7---|8-------8---8--|3-------3---3-3-|8-------8---8-8-|x5
C|7-------7---7---|----------------|----------------|----------------|

C|----------------|10------10--10-|5-------5---5-5-|10-10-10-10-10--|
G|7-------7---7---|8-------8---8--|3-------3---3-3-|-8--8--8--8--8--|x1
C|7-------7---7---|----------------|----------------|----------------|

G|7~~~~~~~~~~~~~~~|~~~~~~~~~~~~~~~~|x1
C|7~~~~~~~~~~~~~~~|~~~~~~~~~~~~~~~~|