Stop Censorship
 
 

 
 1-9 a b c d e f g h i j k l m n o p q r s t u v w x y z
   System Of A Down - A.T.W.A Tab    

the 1st bit is dont by bass

----------------------------
----------------------------
----------------------------
----------------------------
----------------------------
-3-2-2-2-2-2--3-2-2-2-2-2---
solo

---------------------------------------------------------------------
---------------------------------------------------------------------
-12-12-12-12-12-10-10-10-10-10-10-14-14-14-14-14-15-15-15-15-15-17-17
---------------------------------------------------------------------
---------------------------------------------------------------------
---------------------------------------------------------------------

---------------------------------------------------------------------
---------------------------------------------------------------------
-17-17-15-15-15-15-14-14-14-14-14-12-12-12-12------------------------
---------------------------------------------------------------------
---------------------------------------------------------------------
---------------------------------------------------------------------

---------------------------------------------------------------------
---------------------------------------------------------------------
---------------------------------------------------------------------
-2-2-2-2-2-0-0-0-0-0-4-4-4-4-5-5-5-5-7-7-7-7--5-5-5-5-4-4-4-4-2-2-2-2
-2-2-2-2-2-0-0-0-0-0-4-4-4-4-5-5-5-5-7-7-7-7--5-5-5-5-4-4-4-4-2-2-2-2
-2-2-2-2-2-0-0-0-0-0-4-4-4-4-5-5-5-5-7-7-7-7--5-5-5-5-4-4-4-4-2-2-2-2

Thats it the bass does the rest