Stop Censorship
 
 

 
 1-9 a b c d e f g h i j k l m n o p q r s t u v w x y z
   System Of A Down - Boom Tab    

Mxtabs .net
Band: System of a Down
Song: BOOM!
Tabbed by: Deny C
Cd: Steal this album
I’m sure this tab is 100% correct!!
Step by step!!!!!!
Enjoyed!!

Intro /with distortion
|--------------------------------------------------------------------------------|
|--------------------------------------------------------------------------------|
|--------------------------------------------------------------------------------|
|--------------------------------------------------------------------------------|
|--------------------------------------------------------------------------------|
|--1-1--0-0--1-1--0-0--1-1--0-0--1-1--0-0--1-1--0-0--1-1--0-0--1-1--0-0--1-1--0--|

(Palm mute…)
|----------------------------------------------|
|----------------------------------------------|
|----------------------------------------------|
|-------0-2-3-2--5---3-2-3---------------------| Repeat 2x
|----------------------------------------------|
|----------------------------------------------|

(Palm mute…)
|----------------------------------------------|
|----------------------------------------------|
|----------------------------------------------|
|--0-1-2-1--4--2-1-2---------------------------| Repeat 2x
|----------------------------------------------|
|----------------------------------------------|

(Palm mute…)
|----------------------------------------------|
|----------------------------------------------|
|----------------------------------------------|
|--0-4-5-4---7--5-4-5--------------------------| Repeat 2x
|----------------------------------------------|
|----------------------------------------------|







(Palm mute…)
|----------------------------------------------|
|----------------------------------------------|
|----------------------------------------------|
|---0-2-3-2---5--3-2-3-------------------------| Repeat 2x
|----------------------------------------------|
|----------------------------------------------|

|--------------------------|
|-----9x-9x-8x-8x----------|
|--------------------------|
|--------------------------| Repeat 4x
|--------------------------|
|--------------------------|

|------------6-7-----------|
|----9-8-9-----------------|
|--------------------------|
|--------------------------| Repeat 4x
|--------------------------|
|--------------------------|

|--------------------------------------------------------------------------------|
|--------------------------------------------------------------------------------|
|--------------------------------------------------------------------------------|
|--2-x-x-x-x--2-x-x-x-x--2-x-x-x-x--2-x-x-x-x------------------------------------|
|--2-x-x-x-x--2-x-x-x-x--2-x-x-x-x--2-x-x-x-x------------------------------------|
|--0-x-x-x-x--0-x-x-x-x--0-x-x-x-x--0-x-x-x-x------------------------------------|
Boom! Boom! Boom! Boom!

|--------------------------------------------------------|
|--------------------------------------------------------|
|--4-4--3-3-------4-4--3-3----4-4--3-3----4-4--3---------|
|--4-4--3-3-------4-4--3-3----4-4--3-3----4-4--3---------|
|--2-2--1-1-------2-2--1-1----2-2--1-1----2-2--1---------|
|------------------------------------------------------- |
Every time you drop……..

|----------------------------------------------------------------------|
|----------------------------------------------------------------------|
|----------------------------------------------------------------------|
|--2-x-x-x-x--2-x-x-x-x--2-x-x-x-x--2-x-x-x-x--------------------------|
|--2-x-x-x-x--2-x-x-x-x--2-x-x-x-x--2-x-x-x-x--------------------------|
|--0-x-x-x-x--0-x-x-x-x--0-x-x-x-x--0-x-x-x-x--------------------------|
Boom! Boom! Boom! Boom!




|----------------------------------------------|
|----------------------------------------------|
|----------------------------------------------|
|---0-2-3-2--5---3-2-3-------------------------| Repeat 2x
|----------------------------------------------|
|----------------------------------------------|

|----------------------------------------------|
|----------------------------------------------|
|----------------------------------------------|
|--0-1-2-1--4--2-1-2---------------------------| Repeat 2x
|----------------------------------------------|
|----------------------------------------------|

|----------------------------------------------|
|----------------------------------------------|
|----------------------------------------------|
|--0-4-5-4---7--5-4-5--------------------------| Repeat 2x
|----------------------------------------------|
|----------------------------------------------|

|----------------------------------------------|
|----------------------------------------------|
|----------------------------------------------|
|---0-2-3-2---5--3-2-3-------------------------| Repeat 2x
|----------------------------------------------|
|----------------------------------------------|


|--------------------------|
|-----9x-9x-8x-8x----------|
|--------------------------|
|--------------------------| Repeat 4x
|--------------------------|
|--------------------------|

|------------6-7-----------|
|----9-8-9-----------------|
|--------------------------|
|--------------------------| Repeat 4x
|--------------------------|
|--------------------------|


|--------------------------------------------------------------------------------|
|--------------------------------------------------------------------------------|
|--------------------------------------------------------------------------------|
|--2-x-x-x-x--2-x-x-x-x--2-x-x-x-x--2-x-x-x-x------------------------------------|
|--2-x-x-x-x--2-x-x-x-x--2-x-x-x-x--2-x-x-x-x------------------------------------|
|--0-x-x-x-x--0-x-x-x-x--0-x-x-x-x--0-x-x-x-x------------------------------------|
Boom! Boom! Boom! Boom!

|--------------------------------------------------------|
|--------------------------------------------------------|
|--4-4--3-3-------4-4--3-3----4-4--3-3----4-4--3---------|
|--4-4--3-3-------4-4--3-3----4-4--3-3----4-4--3---------|
|--2-2--1-1-------2-2--1-1----2-2--1-1----2-2--1---------|
|------------------------------------------------------- |
Every time you drop……..

|--------------------------------------------------------------------------------|
|--------------------------------------------------------------------------------|
|--------------------------------------------------------------------------------|
|--2-x-x-x-x--2-x-x-x-x--2-x-x-x-x--2-x-x-x-x------------------------------------|
|--2-x-x-x-x--2-x-x-x-x--2-x-x-x-x--2-x-x-x-x------------------------------------|
|--0-x-x-x-x--0-x-x-x-x--0-x-x-x-x--0-x-x-x-x------------------------------------|
Boom! Boom! Boom! Boom!

|-------------------------------|
|-------------------------------|
|-------------------------------|
|--2-2-2-2-2-2--3---------------|
|--2-2-2-2-2-2--3---------------|
|--0-0-0-0-0-0--1---------------|
Boom! Boom! Boom! Boom! Boom! Boom!

|-----------------------------------------------------------------|
|-----------------------------------------------------------------|
|---------4--3--------4--5---7------------------------------------|
|---2-----4--3--------4--5---7-----8--7----7-7-7------------------|
|---2-----2--1--------2--3---5-----8--7----7-7-7------------------|
|---0---------------------------------6--5----5-5-5---------------|
(Let ring…………………………………………………….)


|---------------------------------------------------------------|
|---------------------------------------------------------------|
|---------4--3--------4--5---7----------------------------------|
|---2-----4--3--------4--5---7-----8--7----7-7-7----------------|
|---2-----2--1--------2--3---5-----8--7----7-7-7----------------|
|---0---------------------------------6--5----5-5-5-------------|
Why my…………….
(Let ring…………………………………………………….)

|--------------------------------------------------------------------------------|
|--------------------------------------------------------------------------------|
|--------------------------------------------------------------------------------|
|--2-x-x-x-x--2-x-x-x-x--2-x-x-x-x--2-x-x-x-x------------------------------------|
|--2-x-x-x-x--2-x-x-x-x--2-x-x-x-x--2-x-x-x-x------------------------------------|
|--0-x-x-x-x--0-x-x-x-x--0-x-x-x-x--0-x-x-x-x------------------------------------|
Boom! Boom! Boom! Boom!

|--------------------------------------------------------|
|--------------------------------------------------------|
|--4-4--3-3-------4-4--3-3----4-4--3-3----4-4--3---------|
|--4-4--3-3-------4-4--3-3----4-4--3-3----4-4--3---------|
|--2-2--1-1-------2-2--1-1----2-2--1-1----2-2--1---------|
|--------------------------------------------------------|
Every time you drop……..

|--------------------------------------------------------------------------------|
|--------------------------------------------------------------------------------|
|--------------------------------------------------------------------------------|
|--2-x-x-x-x--2-x-x-x-x--2-x-x-x-x--2-x-x-x-x------------------------------------|
|--2-x-x-x-x--2-x-x-x-x--2-x-x-x-x--2-x-x-x-x------------------------------------|
|--0-x-x-x-x--0-x-x-x-x--0-x-x-x-x--0-x-x-x-x------------------------------------|
Boom! Boom! Boom! Boom!

|-------------------------------|
|-------------------------------|
|-------------------------------|
|--2-2-2-2-2-2-2-2--------------|
|--2-2-2-2-2-2-2-2--------------|
|--0-0-0-0-0-0-0-0--------------|
Boom! Boom! Boom! Boom! Boom! Boom! Boom! Boom!

END:
|------------------------------|
|------------------------------|
|--4-4--3-3-------4-4----------|
|--4-4--3-3-------4-4--2-------|
|--2-2--1-1-------2-2--2-------|
|-------------------------0----|
Every time you drop……..