Stop Censorship
 
 

 
 1-9 a b c d e f g h i j k l m n o p q r s t u v w x y z
   System Of A Down - Bounce Tab    

-----------------------------------
system of a down
bounce
----------------------------------
Intro/chorus
------------------------------------------------------------------------------
------------------------------------------------------------------------------
------------------------------------------------------------------------------
-----8--778877887788-0---------------------------------------------------
-----8--778877887788-0---------------------------------------------------
-----8--778877887788-0--------------------------------------------------- x4

verse 1
-------------------------------------------------------------------------------
-------------------------------------------------------------------------------
-------------------------------------------------------------------------------
----78--78--78--78- 67--67--67--67-------------------------------------
--5----5--- 5---5--- 4--4---4---4------------------------------------------
------------------------------------------------------------------------------- x2
pm..........................................

chorus/intro
------------------------------------------------------------------------------
------------------------------------------------------------------------------
------------------------------------------------------------------------------
-----8--778877887788-0---------------------------------------------------
-----8--778877887788-0---------------------------------------------------
-----8--778877887788-0--------------------------------------------------- x4

verse 2 (not palm muted this time)
--------------------------------------------------------------------------------
--------------------------------------------------------------------------------
--------------------------------------------------------------------------------
-----9-10--9-10--9-10--9-10---9-8--9-8--9-8- 9-8----------------------
---7------7------7------7-------6----6-----6----6---------------------------
--------------------------------------------------------------------------------x2

then chorus/intro
------------------------------------------------------------------------------
------------------------------------------------------------------------------
------------------------------------------------------------------------------
-----8--778877887788-0---------------------------------------------------
-----8--778877887788-0---------------------------------------------------
-----8--778877887788-0--------------------------------------------------- x4


then this
--------------------------------------------------------------------------------
--------------------------------------------------------------------------------
----10-10-10-10--9--9--9--9-----------------------------------------------
--8---8---8--8---8--8--8--8-------------------------------------------------
--------------------------------------------------------------------------------
--------------------------------------------------------------------------------x2


breakdown
-------------------------------------------------------------------------------------
-------------------------------------------------------------------------------------
------------------------------------------------------------------------------------
--880-880-880-880-880-880-880-880-------------------------------------------
--880-880-880-880-880-880-880-880-------------------------------------------
--880-880-880-880-880-880-880-880-------------------------------------------

------------------------------------------------------------------------------------
--xx------xx------xx-----xx--------xx-----xx------xx-----xx--------------------
--xx-10--xx-10--xx-10-xx-10----xx--9--xx--9--xx--9--xx--9----------------
--xx--8---xx--8--xx--8--xx--8----xx--8--xx--8--xx--8--xx--8----------------
------------------------------------------------------------------------------------
-------------------------------------------------------------------------------------

-pm------------------------------------------------------------------------
-------------------------------------------------------------------------------------
-------------------------------------------------------------------------------------
------------------------------------------------------------------------------------
--------0-----0------0-----0-------5-----5------5-----5---------------------------
---8-8---8-8---8-8---8-8----8-7---8-7---8-7---8-7-----------------------------

then chorus
------------------------------------------------------------------------------
------------------------------------------------------------------------------
------------------------------------------------------------------------------
-----8--778877887788-0---------------------------------------------------
-----8--778877887788-0---------------------------------------------------
-----8--778877887788-0--------------------------------------------------- x4