Stop Censorship
 
 

 
 1-9 a b c d e f g h i j k l m n o p q r s t u v w x y z
   System Of A Down - Bubbles Tab    

Artist: System Of A Down
Song : Bubbles
Album : Steal this Album
tabber: Vidal jerome (vidal32@voila.fr)
tuning: CGCFAD
h= hummer on
*= palm mute


Intro:
Time(0.00)

D---------------------
A---------------------
F---------------------
C--5-5-5-5------------
G--5-5-5-5------------
C--5-5-5-5------------
* * * *



Chorus:
Time(0.01)

D-----------------------------------
A-----------------------------------
F-----------------------------------
C--3-5-5-5-3-5-5-5-3-5-5-5-6-6-6-6--
G--3-5-5-5-3-5-5-5-3-5-5-5-6-6-6-6--
C--3-5-5-5-3-5-5-5-3-5-5-5-6-6-6-6--




time(0.11)

D-----------------------------------
A-----------------------------------
F-----------------------------------
C--3-5-5-3-5-3-5-5-6-6-6-6----------
G--3-5-5-3-5-3-5-5-6-6-6-6----------
C--3-5-5-3-5-3-5-5-6-6-6-6----------
* * * * * * * * * * * *




time(1.05)

D------------------------------------------
A------------------------------------------
F------------------------------------------
C--5-5-3-5-3-5-5-6-6-6-6-------------------
G--5-5-3-5-3-5-5-6-6-6-6-------------------
C--5-5-3-5-3-5-5-6-6-6-6-------------------





Verse:
Time(0.17)
100% corect

D----------------------------------------------
A----------------------------------------------
F--7-8-7-4-4-4-4-4-4-4-4-4-4-4-7-8-7-10-8-7-8--
C----------------------------------------------
G----------------------------------------------
C----------------------------------------------




Bridge:
Time(1.12)
I`m not very sure of this part...Try it!
Time(1.27)
D---------------- -------------------
A---------------- -------------------
F---------------- --7-7-8-7-10-8-7-8-
C---------------- And alternate that -------------------
G---------------- -------------------
C--5h8-5h6-5----- -------------------