Stop Censorship
 
 

 
 1-9 a b c d e f g h i j k l m n o p q r s t u v w x y z
   System Of A Down - Cherry Tab    

System of a Down
Cherry
**PLEASE RATE**
Tuning: CGCFAD(drop d down a whole step)
Intro
D|------------------------------------------------------|
A|-10-xx--11-xx-99---10-xx--11-xx-99---10-xx--11-xx-99--|
F|-9--xx--9--xx-99---9--xx--9--xx-99---9--xx--9--xx-99--|
C|------------------------------------------------------|
G|------------------------------------------------------|
C|------------------------------------------------------|

Verse 1
|----------------------------------------------------------------------
|----------------------------------------------------------------------
|----------------------------------------------------------------------
|-7-00-8-00-5---7-00-8-00-5---7-00-8-00-5---7-00-8-00-5---7-00-8-00-5--
|-7-00-8-00-5---7-00-8-00-5---7-00-8-00-5---7-00-8-00-5---7-00-8-00-5--
|-7-00-8-00-5---7-00-8-00-5---7-00-8-00-5---7-00-8-00-5---7-00-8-00-5-

2nd part of verse 1
|---------------------------------------------|
|---------------------------------------------|
|---------------------------------------------|
|-7-00-8-00-5----7-00-8-00-5----7-00-8-00-5---|
|-7-00-8-00-5----7-00-8-00-5----7-00-8-00-5---|
|-7-00-8-00-5----7-00-8-00-5----7-00-8-00-5---|


Chorus
|-----------------------------------------------|
|-----------------------------------------------|
|-----------------------------------------------|
|-8--5--7-77-8--5--7-77--8--5--7-77-8--5--7-77--|
|-6--3--5-55-6--3--5-55--6--3--5-55-6--3--5-55--|
|-----------------------------------------------|

2nd part of chorus
|-------------------------------------|
|-------------------------------------|
|-------------------------------------|
|-8--5-----8--5-----8--5-----8--5-----|
|-6--3--0--6--3--0--6--3--0--6--3--0--|
|-------0--------0--------0--------0--|



Verse 2
|---------------------------------------------------------------------|
|--10-xx--11-xx-9---10-xx--11-xx-9---10-xx--11-xx-9---10-xx--11-xx-9--|
|--9--xx--9--xx-9---9--xx--9--xx-9---9--xx--9--xx-9---9--xx--9--xx-9--|
|---------------------------------------------------------------------|
|---------------------------------------------------------------------|
|---------------------------------------------------------------------|
2nd part of verse 2
|------------------------------------------------------------|
|------------------------------------------------------------|
|------------------------------------------------------------|
|-7-00-8-00-5----7-00-8-00-5----7-00-8-00-5----7-00-8-00-5---|
|-7-00-8-00-5----7-00-8-00-5----7-00-8-00-5----7-00-8-00-5---|
|-7-00-8-00-5----7-00-8-00-5----7-00-8-00-5----7-00-8-00-5---|

Bridge
|-------------------------------------------------------------------|
|-------------------------------------------------------------------|
|-------------------------------------------------------------------|
|--7--0--8--0--5--0--7---7--0--8--0--5--0--7---7--0--8--0--5--0--7--|
|--7--0--8--0--5--0--7---7--0--8--0--5--0--7---7--0--8--0--5--0--7--|
|--7--0--8--0--5--0--7---7--0--8--0--5--0--7---7--0--8--0--5--0--7--|
pm . . . . . . . . . . . . . . . . . . . . .

Bridge part 2
|---------------------------------------------|
|---------------------------------------------|
|---------------------------------------------|
|--7--0--8--0--5--0--7---7--0--8--0--5--0--7--|
|--7--0--8--0--5--0--7---7--0--8--0--5--0--7--|
|--7--0--8--0--5--0--7---7--0--8--0--5--0--7--|
. . . . . . . . . . . . . .

Outro
|------------------------------------------------------------|
|------------------------------------------------------------|
|------------------------------------------------------------|
|-7777-8888-55---7777-8888-55---7777-8888-55---7777-8888-55--|
|-7777-8888-55---7777-8888-55---7777-8888-55---7777-8888-55--|
|-7777-8888-55---7777-8888-55---7777-8888-55---7777-8888-55--|

intro
Verse 1
Verse 1 part 2
Chorus
Chorus part 2
Verse 2
Verse 2 part 2
Bridge x2
Bridge part 2
Chorus
Chorus part2
Outro