Stop Censorship
 
 

 
 1-9 a b c d e f g h i j k l m n o p q r s t u v w x y z
   System Of A Down - Dam Tab    

System of a Down
Dam
Tuning:CGCFAD (drop d down a whole step)

D-----------------------------------------------
A-----------------------------------------------
F------------------------------------3----------
C------7---------7---------3-----------3--------
G----5---5---5-----5-----1---1---1--------------
C--0-------0---0-------0-------1---1------------

D-----------------------------------------------
A-----------------------------------------------
F--------------------------------------3--------
C-------7---------7----------3-----------3------
G-----5---5---5-----5------1---1---1------------
C---0-------0---0--------0-------1---1----------