Stop Censorship
 
 

 
 1-9 a b c d e f g h i j k l m n o p q r s t u v w x y z
   System Of A Down - Dam Tab    

Author/Artist : System Of A Down
Title : Dam
Album : - - -
Transcribed by : Pollie
Email : korno18@hotmail.com
HP : http:/www.slavery-online.de.vu

Tuning

D
A
F
C
G
C


Clean (Light Distortion)

-------------------------------------
-------------------------------------
-------------------------------------
-----7---------7-------3---------8---
---5---5---5-----5---1---1---6-----6-
-0-------0---0-----0-------0---0-----

-------------------------------------
-------------------------------------
-------------------------------------
-----7---------7-------3---------8---
---5---5---5-----5---1---1---6-----6-
-0-------0---0-----0-------0---0-----

-------------------------------------
-------------------------------------
-------------------------------------
-----7---------7-------3---------8---
---5---5---5-----5---1---1---6-----6-
-0-------0---0-----0-------0---0-----

-------------------------------------
-------------------------------------
-------------------------------------
-----7---------7-------3---------8---
---5---5---5-----5---1---1---6-----6-
-0-------0---0-----0-------0---0-----

-------------------------------------
-------------------------------------
-------------------------------------
-----7---------7-------3---------8---
---5---5---5-----5---1---1---6-----6-
-0-------0---0-----0-------0---0-----

-------------------------------------
-------------------------------------
-------------------------------------
-----7---------7-------3---------8---
---5---5---5-----5---1---1---6-----6-
-0-------0---0-----0-------0---0-----

-------------------------------------
-------------------------------------
-------------------------------------
-----7---------7-------3---------8---
---5---5---5-----5---1---1---6-----6-
-0-------0---0-----0-------0---0-----

-------------------------------------
-------------------------------------
-------------------------------------
-----7---------7-------3---------8---
---5---5---5-----5---1---1---6-----6-
-0-------0---0-----0-------0---0-----

and so on . . .