Stop Censorship
 
 

 
 1-9 a b c d e f g h i j k l m n o p q r s t u v w x y z
   System Of A Down - Ego Brain Tab    

Song: Ego Brain
Band: System Of A Down
Album: Steal This Album

Intro/Verse (clean)
D|--------------------------------------------------
A|-------8------------------------8-----------------
F|-----9---9--------------------9---9---------------
C|---9-------9-----9-----9----9-------9-----9-----9-
G|-7-------------7-----7----7-------------7-----7---
C|-------------7-----7------------------7-----7-----

D|-------------------------------------------------------
A|-------8-----------------------------------------------
F|-----9---9---------------------12-------12-------------
C|---9-------9-----9-----9----12-------12--------5-----7-
G|-7-------------7-----7---10-------10---------5-----7---
C|-------------7-----7-----------------------5-----7-----

Chorus (distortion)
(you can figure out strumming pattern)
D|------------------------------------------
A|------------------------------------------
F|------------------------------------------
C|-9-7-3--2--3--2---2-----------2-----------
G|-9-7-3--2--3--2---2-7-3-2h3h2-2-7-3-2h3h2-
C|-9-7-3--2--3--2---2-----------2-----------

D|--------------------------------------------------------
A|--------------------------------------------------------
F|--------------------------------------------------------
C|-3-5--5-3-7-5-3-2h3h2-----------2-----------2-----------
G|-3--------------------7-3-2h3h2-2-7-3-2h3h2-2-7-3-2h3h2-
C|-3------------------------------2-----------2-----------

D|----------------------
A|----------------------
F|----------------------
C|-3-5--5-3-7-5-3-2h3h2- then you play
G|-3-------------------- the verse again
C|-3--------------------

Outro
Just play the intro/verse, and end on:
D|---
A|-8-
F|-9-
C|-9-
G|-7-
C|---