Stop Censorship
 
 

 
 1-9 a b c d e f g h i j k l m n o p q r s t u v w x y z
   System Of A Down - Goodbye Blue Sky Tab    



Artist: System of a Down
Song: Good Bye Blue Sky (Cover)
Album: Random Concert song

Questions? E-mail me at ssblacklight@hotmail.com

Guitars 6-string tuned 1 step down from drop D (CGCFAD)




D|----------------------------------------------------|
A|----------------------------------------------------|
F|----------0------------------0----------------------|
C|-----4-------4---4-------4------4---4---------------|
G|---5---5-------5-------5---5-----5------------------|
C|----------------------------------------------------|



D|----------------------------------------------------|
A|----------------------------------------------------|
F|-------0-------0-------0----------------------------|
C|-----4---4---4---4---4---4--------------------------|
G|---2-------2-------2-------2------------------------|
C|----------------------------------------------------|



D|-----------------------------------------------------|
A|-----------------------------------------------------|
F|----------5-5--------4-4--------5-5--------4-4---4-5-|
C|-----2--------2---2---------2-------0---0------------|
G|---0---0--------0---------0---0-------2--------------|
C|-----------------------------------------------------|