Stop Censorship
 
 

 
 1-9 a b c d e f g h i j k l m n o p q r s t u v w x y z
   System Of A Down - Innervision Tab    

Band: System of a Down
Song: Innervision
Guitarist: Daron Malakian

Tuning: Dropped C

Tabber: Callum
Contact: hamstertube@hotmail.com

Legend:
. = palm mute
= slide down
x# = repeat # times

--------------------------------------------------------------------

Intro:
D:---------------------------------------------------------------------------|
A:---------------------------------------------------------------------------|
F:---------------------------------------------------------------------------|
C:---1--1-1-1--1-1-1-1-1--1-1-1--1-1-1-1-------------------------------------|
G:---1--1-1-1--1-1-1-1-1--1-1-1--1-1-1-1-x2-(without slide)------------------|
C:101--1-1-1--1-1-1-1-1--1-1-1--1-1-1-1-------------------------------------|




Pre-Verse:
D:---------------------------------------------------------------------------|
A:---------------------------------------------------------------------------|
F:---------------------------------------------------------------------------|
C:---------------------------------------------------------------------------|
G:---------------------------------------------------------------------------|
C:-0-0-0-5-5-5-3-3-3-1-1-1-3-3-1-1-x2----------------------------------------|




Verse:
D:---------------------------------------------------------------------------|
A:---------------------------------------------------------------------------|
F:---------------------------------------------------------------x2----------|
C:---------------------------------------------------------------------------|
G:----------------x2--------------------------------x2-----------------------|
C:-0-0-0-5-5-5-3-3-3-1-1-1-3-3-1-1--0-0-0-5-5-5-7-7-7-3-3-3-7-7-5-5----------|




Pre-Chorus:
D:---------------------------------------------------------------------------|
A:----------------------------------4------4---------------------------------|
F:--------------------------------0------0-----------------------------------|
C:-1----------------------------1------1-------------------------------------|
G:-1-(x16, increase speed)--or-----------------------------------------------|
C:-1-------------------------------------------------------------------------|
.



Chorus:
D:---------------------------------------------------------------------------|
A:---------------------------------------------------------------------------|
F:---------------------------------------------------------------------------|
C:-0--5--7--3--7--5---------1------------------------------------------------|
G:-0--5--7--3--7--5-x2------1-(16 times)-------------------------------------|
C:-0--5--7--3--7--5---------1------------------------------------------------|




Pre-Verse:
D:---------------------------------------------------------------------------|
A:---------------------------------------------------------------------------|
F:---------------------------------------------------------------------------|
C:---------------------------------------------------------------------------|
G:---------------------------------------------------------------------------|
C:-0-0-0-5-5-5-3-3-3-1-1-1-3-3-1-1--x2---------------------------------------|




Verse:
D:---------------------------------------------------------------------------|
A:---------------------------------------------------------------------------|
F:----------------------------------------------------------------x2---------|
C:---------------------------------------------------------------------------|
G:-----------------x2-------------------------------x2-----------------------|
C:-0-0-0-5-5-5-3-3-3-1-1-1-3-3-1-1---0-0-0-5-5-5-7-7-7-3-3-3-7-7-5-5---------|




Pre-Chorus
D:---------------------------------------------------------------------------|
A:----------------------------------4------4---------------------------------|
F:--------------------------------0------0-----------------------------------|
C:-1----------------------------1------1-------------------------------------|
G:-1-(x16,-increase-speed)--or-----------------------------------------------|
C:-1-------------------------------------------------------------------------|
.



Chorus:
D:---------------------------------------------------------------------------|
A:---------------------------------------------------------------------------|
F:---------------------------------------------------------------------------|
C:-0--5--7--3--7--5-----1--1-1-1--1-1-1-1-1--1-1-1--1-1-1-1------------------|
G:-0--5--7--3--7--5-x2--1--1-1-1--1-1-1-1-1--1-1-1--1-1-1-1--(whole thing x3)|
C:-0--5--7--3--7--5-----1--1-1-1--1-1-1-1-1--1-1-1--1-1-1-1------------------|




Transition to Bridge:
D:---------------------------------------------------------------------------|
A:---------------------------------------------------------------------------|
F:---------------------------------------------------------------------------|
C:-1------------------------------------0--5--7--3--7--5----(whole-bar x3)---|
G:-1-(x16, gradually increasing speed)--0--5--7--3--7--5-x2------------------|
C:-1------------------------------------0--5--7--3--7--5---------------------|
.



Bridge:
D:-6--6-6--6-6-6--5--5-5--5-5-5-----6--6-6--6-6-6---5--5-5--5-5-5------------|
A:-4--4-4--4-4-4--4--4-4--4-4-4-x2--3--3-3--3-3-3---3--3-3--3-3-3-x2---------|
F:---------------------------------------------------------------------------|
C:--------------------------this whole bar is played 3 times-----------------|
G:---------------------------------------------------------------------------|
C:---------------------------------------------------------------------------|




Bridge (cont`d):
D:-6--6-6--6-6-6---5--5-5--5-5-5---6--6-6--6-6-6---5--5-5---5-5-5------------|
A:-4--4-4--4-4-4---4--4-4--4-4-4---4--4-4--4-4-4---4--4-4---4-4-4------------|
F:---------------------------------------------------------------------------|
C:---------------------------------------------------------------------------|
G:---------------------------------------------------------------------------|
C:---------------------------------------------------------------------------|




Transition to Outro:
D:---------------------------------------------------------------------------|
A:---------------------------------------------------------------------------|
F:---------------------------------------------------------------------------|
C:-0--0-5--5-3--3-1-3-1------------------------------------------------------|
G:-0--0-5--5-3--3-1-3-1-x2---------------------------------------------------|
C:-0--0-5--5-3--3-1-3-1------------------------------------------------------|
. . . . . . . . .



Outro:
D:-------------------------------------------------------------------------|
A:-------------------------------------------------------------------------|
F:-------------------------------------------------------------------------|
C:-0-0-0-5-5-5-3-3-3-1-1-1-3-3-1-1--0-0-0-5-5-5-3-3-3-1-1-1-3-3-1----------|
G:-0-0-0-5-5-5-3-3-3-1-1-1-3-3-1-1--0-0-0-5-5-5-3-3-3-1-1-1-3-3-1-(no ring)|
C:-0-0-0-5-5-5-3-3-3-1-1-1-3-3-1-1--0-0-0-5-5-5-3-3-3-1-1-1-3-3-1----------|
. . . . . . . . . . . . . . . . . . . . . . . . . . . . . . .

*phew* glad that`s over with! :)