Stop Censorship
 
 

 
 1-9 a b c d e f g h i j k l m n o p q r s t u v w x y z
   System Of A Down - Jet Pilot Tab    

Song: Jet Pilot
Artist: System of a Down
Album: Toxicity
Tabber: Michael Holcomb (blade14o7@netscape.net)

Tuning: Drop C (CGCFAD)

CHORUS: (0:00)
C|--------------8-|--------------8-|--------------8-|--------------8-|
G|0-0-0-----0-0-6-|0-0-0-----0-0-6-|0-0-0-----0-0-6-|0-0-0-----0-0-6-|x2
C|0-0-0-3/7-0-0---|0-0-0-3/7-0-0---|0-0-0-3/7-0-0---|0-0-0-3/7-0-0---|

C|----------------|----------------|----------------|----------------|
G|0-0-0-----0-0---|--0-0-----0-0---|--0-0-----0-0---|--0-0-----0-0---|x1
C|0-0-0-3/7-0-0-3/|7-0-0-3/7-0-0-3/|7-0-0-3/7-0-0-3/|7-0-0-3/7-0-0-3/|

C|----3---2---0---|2-0h2p0---------|
G|0---------------|--------3---1---|x1
C|----------------|----------------|

VERSE: (0:18)
G|7-8-7-8-7---5---|7-8-7-8-7---5---|7-8-7-8-7---5---|7-8-7-8-7---5---|x2
C|7-8-7-8-7---5---|7-8-7-8-7---5---|7-8-7-8-7---5---|7-8-7-8-7---5---|
p.m.. . . . . . . . . . . . . . . . . . . . . .

G|7-8-7-8-7-5-5-5-|7-8-7-8-7-5-5-5-|7-8-7-8-7-5-5-5-|7-8-7-8-7-5-5-5-|x1
C|7-8-7-8-7-5-5-5-|7-8-7-8-7-5-5-5-|7-8-7-8-7-5-5-5-|7-8-7-8-7-5-5-5-|
p.m.. . . . . . . . . . . . . . . . . . . . . . . . . . . . . .

G|7-8-7-8-7-5-5-5-|7-8-7-8-7-5-5-5-|7---------------|----------------|x1
C|7-8-7-8-7-5-5-5-|7-8-7-8-7-5-5-5-|7---------------|----------------|
p.m.. . . . . . . . . . . . . .

CHORUS: (0:38)
C|--------------8-|--------------8-|--------------8-|--------------8-|
G|0-0-0-----0-0-6-|0-0-0-----0-0-6-|0-0-0-----0-0-6-|0-0-0-----0-0-6-|x2
C|0-0-0-3/7-0-0---|0-0-0-3/7-0-0---|0-0-0-3/7-0-0---|0-0-0-3/7-0-0---|

C|----3---2---0---|2-0h2p0---------|
G|0---------------|--------3---1---|x1
C|----------------|----------------|

VERSE: (0:51)
G|7-8-7-8-7---5---|7-8-7-8-7---5---|7-8-7-8-7---5---|7-8-7-8-7---5---|x2
C|7-8-7-8-7---5---|7-8-7-8-7---5---|7-8-7-8-7---5---|7-8-7-8-7---5---|
p.m.. . . . . . . . . . . . . . . . . . . . . .

G|7-8-7-8-7-5-5-5-|7-8-7-8-7-5-5-5-|7-8-7-8-7-5-5-5-|7-8-7-8-7-5-5-5-|x1
C|7-8-7-8-7-5-5-5-|7-8-7-8-7-5-5-5-|7-8-7-8-7-5-5-5-|7-8-7-8-7-5-5-5-|
p.m.. . . . . . . . . . . . . . . . . . . . . . . . . . . . . .

G|7-8-7-8-7-5-5-5-|7-8-7-8-7-5-5-5-|7---------------|----------------|x1
C|7-8-7-8-7-5-5-5-|7-8-7-8-7-5-5-5-|7---------------|----------------|
p.m.. . . . . . . . . . . . . .

CHORUS: (1:11)
C|--------------8-|--------------8-|--------------8-|--------------8-|
G|0-0-0-----0-0-6-|0-0-0-----0-0-6-|0-0-0-----0-0-6-|0-0-0-----0-0-6-|x2
C|0-0-0-3/7-0-0---|0-0-0-3/7-0-0---|0-0-0-3/7-0-0---|0-0-0-3/7-0-0---|

C|----------------|----------------|----------------|--------------8-|
G|0-0-0-----0-0---|--0-0-----0-0---|--0-0-----0-0---|--0-0-----0-0-6-|x2
C|0-0-0-3/7-0-0-3/|7-0-0-3/7-0-0-3/|7-0-0-3/7-0-0-3/|7-0-0-3/7-0-0---|

INTERLUDE: (1:31)
C|----3---2---0---|2-0h2p0---------|
G|0---------------|--------3---1---|x4
C|----------------|----------------|

A|----------------|----------------|6-5-----5-------|
F|3---2---5---3---|7---5---8---7---|----7-5---7-5---|
C|----------------|----------------|--------------6-|
p.m.. . . . . .

CHORUS: (1:45)
C|--------------8-|--------------8-|--------------8-|--------------8-|
G|0-0-0-----0-0-6-|0-0-0-----0-0-6-|0-0-0-----0-0-6-|0-0-0-----0-0-6-|x2
C|0-0-0-3/7-0-0---|0-0-0-3/7-0-0---|0-0-0-3/7-0-0---|0-0-0-3/7-0-0---|

C|----------------|----------------|----------------|--------------8-|
G|0-0-0-----0-0---|--0-0-----0-0---|--0-0-----0-0---|--0-0-----0-0-6-|x2
C|0-0-0-3/7-0-0-3/|7-0-0-3/7-0-0-3/|7-0-0-3/7-0-0-3/|7-0-0-3/7-0-0---|