Stop Censorship
 
 

 
 1-9 a b c d e f g h i j k l m n o p q r s t u v w x y z
   System Of A Down - Jet Pilot Tab    

Song:Jet Pilot
Album:Toxicity 04

Drop C:
C G C F A D
email me with questions and comments m4n237nrejiw@aol.com
Intro/Chorus: Fig. 1 x2

d-----------------------------------------------------------------
a-----------------------------------------------------------------
f-----------------------------------------------------------------
c---------------8---------------8---------------8---------------8-
g-0-0-0-----0-0-6-0-0-0-----0-0-6-0-0-0-----0-0-6-0-0-0-----0-0-6-
c-0-0-0-3/7-0-0---0-0-0-3/7-0-0---0-0-0-3/7-0-0---0-0-0-3/7-0-0---

then

d-----------------------------------------------------------------
a-----------------------------------------------------------------
f-----------------------------------------------------------------
c-----------------------------------------------------------------
g-0-0-0-----0-0-----0-0-----0-0-----0-0-----0-0-----0-0-----0-0---
c-0-0-0-3/7-0-0-3/7-0-0-3/7-0-0-3/7-0-0-3/7-0-0-3/7-0-0-3/7-0-0-3-

Riff A:

d-----------------------------------------------------------------
a-----------------------------------------------------------------
f-----------------------------------------------------------------
c--------3--------2--------0--------2--------0h2p0----------------
g-0---------------------------------------------------3-------1---
c-----------------------------------------------------------------

Verses: Fig. 2 x2

palm muted
d-----------------------------------------------------------------
a-----------------------------------------------------------------
f-----------------------------------------------------------------
c-----------------------------------------------------------------
g-7-8-7-8-7---5---7-8-7-8-7---5---7-8-7-8-7---5---7-8-7-8-7---5---
c-7-8-7-8-7---5---7-8-7-8-7---5---7-8-7-8-7---5---7-8-7-8-7---5---

then
palm mute this part
d-----------------------------------------------------------------
a-----------------------------------------------------------------
f-----------------------------------------------------------------
c-----------------------------------------------------------------
g-7-8-7-8-7-5-5-5-7-8-7-8-7-5-5-5-7-8-7-8-7-5-5-5-7-8-7-8-7-5-5-5-
c-7-8-7-8-7-5-5-5-7-8-7-8-7-5-5-5-7-8-7-8-7-5-5-5-7-8-7-8-7-5-5-5-

d-----------------------------------------------------------------
a-----------------------------------------------------------------
f-----------------------------------------------------------------
c-----------------------------------------------------------------
g-7-8-7-8-7-5-5-5-7-8-7-8-7-5-5-5-7-------------------------------
c-7-8-7-8-7-5-5-5-7-8-7-8-7-5-5-5-7-------------------------------

Chorus: Fig. 1 x2, then Riff A

Bridge: half time feel

Fig. 3 x2

d-----------------------------------------------------------------
a-----------------------------------------------------------------
f-----------------------------------------------------------------
c---------------------------------------------------------------8-
g-0-0-0-----0-0-----0-0-----0-0-----0-0-----0-0-----0-0-----0-0-6-
c-0-0-0-3/7-0-0-3/7-0-0-3/7-0-0-3/7-0-0-3/7-0-0-3/7-0-0-3/7-0-0---

Interlude: Riff A x4

solo kinda thing
d-----------------------------------------------------------------
a------------------------------------------------6-5-----5--------
f------------2---3---2---5---3---7---5---8---7-------7-5---7-5----
c----3---5-----------------------------------------------------6--
g-0---------------------------------------------------------------
c-----------------------------------------------------------------