Stop Censorship
 
 

 
 1-9 a b c d e f g h i j k l m n o p q r s t u v w x y z
   System Of A Down - Marmalade Tab    

Marmalade
By System of a Down
Tabbed by: Fernando L.

Drop D and down a step (CGCFAD)
AH = Artificial Harmonic
PM = Palm Mute

Intro
~~~~~
|-------------------------------------------------------------------|
|-------------------------------------------------------------------|
|-------------------------------------------------------------------|
|--7-7-10-7-7-7-10-7-7-7-10-7-7-7-10-6-6-9-6-6-6-9-6-6-6-9-6-6-6-9--|
|-------------------------------------------------------------------|
|-------------------------------------------------------------------|


1..2.. 3..4..
|-------------------|-------------------|
|----------6-6-5-5--|----------6-6-5-5--|
|------5-5----------|------4-4----------|
|--7-7--------------|--6-6--------------|
|-------------------|-------------------|
|-------------------|-------------------|

Verse
~~~~~
|-----------------------------------------------|
|-----------------------------------------------|
|-----------------------------------------------|
|------------------------------3--------------1-|
|--0-0-3-3-1-1-----0-0-3-3-1-1----0-0-3-3-1-1---|
|--------------2-2------------------------------|
PM - - - - - - - - - - - - - - - - - - - -

|--5-|
|--5-|
|----| Make all staccato but let the last one ring
|----|
|----|
|----|

|-------------------------------------------------------------------------|
|-------------------------------------------------------------------------|
|-------------------------------------------------------------------------|
|---------------10-10-----10-10-----10-10-------------9-9-----9-9-----9-9-|
|---------------10-10-----10-10-----10-10-------------9-9-----9-9-----9-9-|
|--7-7-10-7-7-7-10-10-7-7-10-10-7-7-10-10-6-6-9-6-6-6-9-9-6-6-9-9-6-6-9-9-|
PM - - -- - - - - - - - - - - - - - - - - -

Chorus
~~~~~~
1..2.. 3..4..
|-------------------|-------------------|
|----------6-6-5-5--|----------6-6-5-5--|
|------5-5----------|------4-4----------|
|--7-7--------------|--6-6--------------|
|-------------------|-------------------|
|-------------------|-------------------|

Pre-Solo/Outro
~~~~~~~~~~~~~~
|---------|---------|
|---5-6-5-|---5-6-5-|
|---------|---------|
|-7-------|-7-------|
|---------|---------|
|---------|---------|
PM - - -
AH - - -

Solo
~~~~
|--5-5-5-5-5-5-5-5-7-7-7-7-7-7-8-8-8-8-8-4-4-4-4-4-4-4-4--12-12-12-12--|
|--5-5-5-5-5-5-5-5-7-7-7-7-7-7-8-8-8-8-8-4-4-4-4-4-4-4-4--13-13-13-13--|
|----------------------------------------------------------------------|
|----------------------------------------------------------------------|
|----------------------------------------------------------------------|
|----------------------------------------------------------------------|

|--12-12-12-12-5-5-5-5-5-5-5-5-7-7-7-7-7-8-8-8-8-3-3-3-3-3-3-3-3--|
|--12-12-12-12-5-5-5-5-5-5-5-5-7-7-7-7-7-8-8-8-8-3-3-3-3-3-3-3-3--|
|-----------------------------------------------------------------|
|-----------------------------------------------------------------|
|-----------------------------------------------------------------|
|-----------------------------------------------------------------|

|--12-12-12-12-12-12-12-12-5-5-7-7-8-8-7-7-10-10-8-8-7-7-8-8-4-4-5-5-7-7-|
|--13-13-13-13-12-12-12-12-----------------------------------------------|
|------------------------------------------------------------------------|
|------------------------------------------------------------------------|
|------------------------------------------------------------------------|
|------------------------------------------------------------------------|
AH - --

|--5-5-8-8-7-7-5-5-7-7-5-5-7-7-8-8-7-7-10-10-8-8-7-7-8-8-3-3-5-5-7-7-5-5-|
|------------------------------------------------------------------------|
|------------------------------------------------------------------------|
|------------------------------------------------------------------------|
|------------------------------------------------------------------------|
|------------------------------------------------------------------------|
AH - -

|--12-12-10-10-13-13-12-|
|-----------------------|
|-----------------------|
|-----------------------|
|-----------------------|
|-----------------------|
AH -- --