Stop Censorship
 
 

 
 1-9 a b c d e f g h i j k l m n o p q r s t u v w x y z
   System Of A Down - Marmalade Tab    

Author/Artist : System Of A Down
Title : Marmalade
Album : System Of A Down - Limited Edition
Transcribed by : Pollie
Email : korno18@hotmail.com
HP : http:/www.slavery-online.de.vu

Tuning

D
A
F
C
G
C



5x
[---------------------------------|---------------------------------]
[---------------------------------|---------------------------------]
[-----7-------7-------7-------7---|-----6-------6-------6-------6---]
[-5-5---5-5-5---5-5-5---5-5-5---5-|-4-4---4-4-4---4-4-4---4-4-4---4-]
[---------------------------------|---------------------------------]
[---------------------------------|---------------------------------]



4x last beat
[---------------------------------|---------------------------------][----------------]
[---------6-6-5-5---------6-6-5-5-|---------6-6-5-5---------6-6-5-5-][---------6-6-5b-]
[-----7-7-------------7-7---------|-----6-6-------------6-6---------][-----6-6--------]
[-5-5-------------5-5-------------|-4-4-------------4-4-------------][-4-4------------]
[---------------------------------|---------------------------------][----------------]
[---------------------------------|---------------------------------][----------------]



2x
[-----------------------------------------------------------------]
[-----------------------------------------------------------------]
[-----------------------------------------------------------------]
[-----------------------------3---------------1-------------------]
[-0-0-3-3-2-2-----0-0-3-3-2-2-----0-0-3-3-2-2-----0-0-3-3-2-2-----]
[-------------2-2---------------------------------------------2-2-]
PM- - - - - - - - - - - - - - - - - - - - - - - - - - - -



14x ending
[---|--------]
[-1-|-1-1-1~-]
[-2-|-2-2-2~-]
[---|--------]
[---|--------]
[---|--------]



2x
[-----------------------------------------------------------------]
[-----------------------------------------------------------------]
[-----------------------------------------------------------------]
[-----------------------------------------------------------------]
[--7-7-7-7-7-7-7---7-7-7---7-7-7---6-6-6-6-6-6-6---6-6-6---6-6-6--]
[--7-7-7-7-7-7-7---7-7-7---7-7-7---6-6-6-6-6-6-6---6-6-6---6-6-6--]
PM - - - - - - - - - - - - - - - - - - - -



2x last beat
[---------------------------------|---------------------------------][----------------]
[---------6-6-5-5---------6-6-5-5-|---------6-6-5-5---------6-6-5-5-][---------6-6-5--]
[-----7-7-------------7-7---------|-----6-6-------------6-6---------][-----6-6--------]
[-5-5-------------5-5-------------|-4-4-------------4-4-------------][-4-4------------]
[---------------------------------|---------------------------------][----------------]
[---------------------------------|---------------------------------][----------------]



8x
[---]
[-1-]
[-2-]
[---]
[---]
[---]



1x
[-----------------------------------------------------------------]
[-----------------------------------------------------------------]
[-----------------------------------------------------------------]
[-----------------------------3---------------1-------------------]
[-0-0-3-3-2-2-----0-0-3-3-2-2-----0-0-3-3-2-2-----0-0-3-3-2-2-----]
[-------------2-2---------------------------------------------2-2-]
PM- - - - - - - - - - - - - - - - - - - - - - - - - - - -



2x
[-----------------------------------------------------------------]
[-----------------------------------------------------------------]
[-----------------------------------------------------------------]
[-----------------------------------------------------------------]
[--7-7-7-7-7-7-7---7-7-7---7-7-7---6-6-6-6-6-6-6---6-6-6---6-6-6--]
[--7-7-7-7-7-7-7---7-7-7---7-7-7---6-6-6-6-6-6-6---6-6-6---6-6-6--]
PM - - - - - - - - - - - - - - - - - - - -



4x last beat
[---------------------------------|---------------------------------][----------------]
[---------6-6-5-5---------6-6-5-5-|---------6-6-5-5---------6-6-5-5-][---------6-6-5--]
[-----7-7-------------7-7---------|-----6-6-------------6-6---------][-----6-6--------]
[-5-5-------------5-5-------------|-4-4-------------4-4-------------][-4-4------------]
[---------------------------------|---------------------------------][----------------]
[---------------------------------|---------------------------------][----------------]



4x 4x 8x
[---------|---------|---12-13-12-]
[---6-5-6-|---6-5-6-|------------]
[---------|---------|------------]
[-7-------|-6-------|------------]
[---------|---------|------------]
[---------|---------|------------]
PM- - - - - - - -


2x
8x 8x
[----|-------------------------|----|-------------------------]
[----|-------------------------|----|-------------------------]
[-14-|-16-16-16-16-17-17-17-17-|-13-|-17-17-17-17-16-16-16-16-]
[--x-|--x--x--x--x--x--x--x--x-|--x-|--x--x--x--x--x--x--x--x-]
[-12-|-14-14-14-14-15-15-15-15-|-11-|-15-15-15-15-14-14-14-14-]
[----|-------------------------|----|-------------------------]


1x
[-------------------------------------------------]
[-------12-12-13-13-12-12-15-15-13-13-12-12-13-13-]
[-14-14-------------------------------------------]
[-------------------------------------------------]
[-------------------------------------------------]
[-------------------------------------------------]
ooooooooooooooooooooooooooooooooooooooooooooooooooo
[-------------------------------------------------]
[-------12-12-13-13-12-12-15-15-13-13-12-12-13-13-]
[-13-13-------------------------------------------]
[-------------------------------------------------]
[-------------------------------------------------]
[-------------------------------------------------]
ooooooooooooooooooooooooooooooooooooooooooooooooooo
[-------------------------------------------------]
[-------12-12-13-13-12-12-15-15-13-13-12-12-13-13-]
[-14-14-------------------------------------------]
[-------------------------------------------------]
[-------------------------------------------------]
[-------------------------------------------------]
ooooooooooooooooooooooooooooooooooooooooooooooooooo
[-------------------------12-12-10-10-13-13-12----]
[-------12-12-13-13-12-12-------------------------]
[-12-12-------------------------------------------]
[-------------------------------------------------]
[-------------------------------------------------]
[-------------------------------------------------]



Very often
[-x-]
[-x-]
[---]
[---]
[---]
[---]



2x
[-----------------------------------------------------------------]
[-----------------------------------------------------------------]
[-----------------------------------------------------------------]
[-----------------------------------------------------------------]
[--7-7-7-7-7-7-7---7-7-7---7-7-7---6-6-6-6-6-6-6---6-6-6---6-6-6--]
[--7-7-7-7-7-7-7---7-7-7---7-7-7---6-6-6-6-6-6-6---6-6-6---6-6-6--]
PM - - - - - - - - - - - - - - - - - - - -



4x last beat
[---------------------------------|---------------------------------][----------------]
[---------6-6-5-5---------6-6-5-5-|---------6-6-5-5---------6-6-5-5-][---------6-6-5--]
[-----7-7-------------7-7---------|-----6-6-------------6-6---------][-----6-6--------]
[-5-5-------------5-5-------------|-4-4-------------4-4-------------][-4-4------------]
[---------------------------------|---------------------------------][----------------]
[---------------------------------|---------------------------------][----------------]



4x
[---------|---]
[---6-5-6-|---]
[---------|---]
[-7-------|-6-]
[---------|---]
[---------|---]
PM- - - - -