Stop Censorship
 
 

 
 1-9 a b c d e f g h i j k l m n o p q r s t u v w x y z
   System Of A Down - Metro Tab    

SONG - METRO
ARTIST - SYSTEM OF A DOWN
TUNING - DROP D

INTRO
e-12--12--12--12--12-12--12-12-12--
B----------------------------------
G---------------------------------- x4
D----------------------------------
A----------------------------------
D----------------------------------

e----------------------------------
B-12-------------------------------
G----11-12-9-11-7-9-6-4------------
D----------------------------------
A----------------------------------
D----------------------------------

e----------------------------------
B-12-------------------------------
G----11-12-12-9-11-7-9-6-4^^^^^^---
D----------------------------------
A----------------------------------
D----------------------------------

CHORUS
e------------------------------------------------------------------
B------------------------------------------------------------------
G------------------------------------------------------------------
D------------------------------------88888888----------------------
A-88888888-1010101010101010-66666666-66666666----------------------
D-88888888-1010101010101010-66666666-------------------------------

e--------------------------------------
B--------------------------------------
G--------------------------------------
D--------------------------------------
A-88888888-1010101010101010-6-6-6-6-66-
D-88888888-1010101010101010-6-6-6-6-66-

LITTLE HIGH BIT IN VERSE
e--------------------------------------
B-12--12--12--12--------------------------
G-12--12--12--12--------------------------
D--------------------------------------
A--------------------------------------
D--------------------------------------


CHORUS
e------------------------------------------------------------------
B------------------------------------------------------------------
G------------------------------------------------------------------
D------------------------------------88888888----------------------
A-88888888-1010101010101010-66666666-66666666----------------------
D-88888888-1010101010101010-66666666-------------------------------

e--------------------------------------
B--------------------------------------
G--------------------------------------
D--------------------------------------
A-88888888-1010101010101010-6-6-6-6-66-
D-88888888-1010101010101010-6-6-6-6-66-


e----------------------------------------------
B----------------------------------------------
G----------------------------------------------
D---------------------------------------------- x LOADS OF TIMES
A-6-6-6-6-66-6-6-6-6-66-6-6-6-6-66-6-6-6-6-66--
D-6-6-6-6-66-6-6-6-6-66-6-6-6-6-66-6-6-6-6-66--


e------------------ -------15------------- ------------------------------
B-12--------------- -12-------17-16-14-12- -12---17-16-14-12-17-16-14-12-
G---11-12-9-11-12-- ---11----------------- ---11-------------------------
D------------------ ---------------------- ------------------------------
A------------------ ---------------------- ------------------------------
D------------------ ---------------------- ------------------------------


OUTRO
Db-xxxxxxx--88-66-88-55-----------------------------
Ab-xxxxxxx--88-66-88-55----------------------------- X ABOUT 3
Db-xxxxxxx--88-66-88-55-----------------------------




SONG - METRO
ARTIST - SYSTEM OF A DOWN
TUNING - DROP D

INTRO
e-12--12--12--12--12-12--12-12-12--
B----------------------------------
G---------------------------------- x4
D----------------------------------
A----------------------------------
D----------------------------------

e----------------------------------
B-12-------------------------------
G----11-12-9-11-7-9-6-4------------
D----------------------------------
A----------------------------------
D----------------------------------

e----------------------------------
B-12-------------------------------
G----11-12-12-9-11-7-9-6-4^^^^^^---
D----------------------------------
A----------------------------------
D----------------------------------

CHORUS
e------------------------------------------------------------------
B------------------------------------------------------------------
G------------------------------------------------------------------
D------------------------------------88888888----------------------
A-88888888-1010101010101010-66666666-66666666----------------------
D-88888888-1010101010101010-66666666-------------------------------

e--------------------------------------
B--------------------------------------
G--------------------------------------
D--------------------------------------
A-88888888-1010101010101010-6-6-6-6-66-
D-88888888-1010101010101010-6-6-6-6-66-

LITTLE HIGH BIT IN VERSE
e--------------------------------------
B-12--12--12--12--------------------------
G-12--12--12--12--------------------------
D--------------------------------------
A--------------------------------------
D--------------------------------------


CHORUS
e------------------------------------------------------------------
B------------------------------------------------------------------
G------------------------------------------------------------------
D------------------------------------88888888----------------------
A-88888888-1010101010101010-66666666-66666666----------------------
D-88888888-1010101010101010-66666666-------------------------------

e--------------------------------------
B--------------------------------------
G--------------------------------------
D--------------------------------------
A-88888888-1010101010101010-6-6-6-6-66-
D-88888888-1010101010101010-6-6-6-6-66-


e----------------------------------------------
B----------------------------------------------
G----------------------------------------------
D---------------------------------------------- x LOADS OF TIMES
A-6-6-6-6-66-6-6-6-6-66-6-6-6-6-66-6-6-6-6-66--
D-6-6-6-6-66-6-6-6-6-66-6-6-6-6-66-6-6-6-6-66--


e------------------ -------15------------- ------------------------------
B-12--------------- -12-------17-16-14-12- -12---17-16-14-12-17-16-14-12-
G---11-12-9-11-12-- ---11----------------- ---11-------------------------
D------------------ ---------------------- ------------------------------
A------------------ ---------------------- ------------------------------
D------------------ ---------------------- ------------------------------


OUTRO
Db-xxxxxxx--88-66-88-55-----------------------------
Ab-xxxxxxx--88-66-88-55----------------------------- X ABOUT 3
Db-xxxxxxx--88-66-88-55-----------------------------