Stop Censorship
 
 

 
 1-9 a b c d e f g h i j k l m n o p q r s t u v w x y z
   System Of A Down - Metro Tab    

Artist: System of a Down
Album: Dracula 2000 sound track
Song: Metro
Transcribed by: Mauricio T.
Tuning: C G c f a d

d||---(13)-x-x-x-x-x-x-x---||
a||---(13)-x-x-x-x-x-x-x---||
f||---(13)-x-x-x-x-x-x-x---||
c||---(13)-x-x-x-x-x-x-x---||
g||---(13)-x-x-x-x-x-x-x---||
C||---(13)-x-x-x-x-x-x-x---||

d||---(13)-x-x-x-x-x-x-x-x--||
a||---(13)-x-x-x-x-x-x-x-x--||
f||---(13)-x-x-x-x-x-x-x-x--||
c||---(13)-x-x-x-x-x-x-x-x--||
g||---(13)-x-x-x-x-x-x-x-x--||
C||---(13)-x-x-x-x-x-x-x-x--||

d||---(13)-x-x-x-x----||
a||---(13)-x-x-x------||
f||---(13)-x-x-x------||
c||---(13)-x-x--------||
g||---(13)-x----------||
C||---(13)-x----------||
(00:10)
d||—14-—14--14--14-14—-14—-14-14--14--------||
a||-----------------------------------------||
f||-----------------------------------------|| (play 2 times)
c||-----------------------------------------||
g||-----------------------------------------||
C||-----------------------------------------||
(00:18)
d||—(18)-x—x-x-x-x-x-x-x-x-x-x--------------||
a||-----------------------------------------||
f||-----------------------------------------||
d||-----------------------------------------||
a||-----------------------------------------||
C||-----------------------------------------||
(00:20)
d||—14-—14--14--14-14—-14—-14-14--14--------||
a||-----------------------------------------||
f||-----------------------------------------|| (play 2 times)
c||-----------------------------------------||
g||-----------------------------------------||
C||-----------------------------------------||
(00:30)
d||—-—--------------------------------------||
a||--15-------------------------------------||
f||------14--15--12--14------12-------------||
c||----------------------15------14--12-----||
g||-----------------------------------------||
C||-----------------------------------------||
(00:35)
d||—-—--------------------------------------||
a||--15-------------------------------------||
f||------14--15-15--12--14------12----------||
c||-------------------------15------14—-12^-||
g||-----------------------------------------||
C||-----------------------------------------||
(00:41)
d||-----------------------------------------||
a||-----------------------------------------||
f||-----------------------------------------||
d||-----------------------------------------|| (play 8 times)
g||--------------3--3-----1--0--------------||
C||--0--2--3--0--------3--------------------||
Pm . . . . . . . . . . . . . .

(1:00)
d||--------------------|| d||--------------------||
a||--------------------|| a||--------------------||
f||--5-5-5-5-5-5-5-5---|| f||--7-7-7-7-7-7-7-7---||
c||--5-5-5-5-5-5-5-5---|| c||--7-7-7-7-7-7-7-7---||
g||--3-3-3-3-3-3-3-3---|| g||--5-5-5-5-5-5-5-5---||
C||--------------------|| C||--------------------||

d||--------------------|| d||----------------------------||
a||--------------------|| a||----------------------------||
f||--------------------|| f||—-10-10-10-10-10-10-10-10---||
c||--8-8-8-8-8-8-8-8---|| c||—-10-10-10-10-10-10-10-10---||
g||--8-8-8-8-8-8-8-8---|| g||---8--8—-8—-8—-8—-8—-8—-8---||
C||--8-8-8-8-8-8-8-8---|| C||----------------------------||

d||--------------------|| d||--------------------||
a||--------------------|| a||--------------------||
f||--5-5-5-5-5-5-5-5---|| f||--7-7-7-7-7-7-7-7---||
c||--5-5-5-5-5-5-5-5---|| c||--7-7-7-7-7-7-7-7---||
g||--3-3-3-3-3-3-3-3---|| g||--5-5-5-5-5-5-5-5---||
C||--------------------|| C||--------------------||

d||------------------------------||
a||------------------------------||
f||------------------------------||
c||----8—-0—-8—-0—-8-8-----------||
g||----8—-0—-8—-0—-8-8-----------||
C||----8—-0—-8—-0—-8-8-----------||

d||--------------------|| d||--------------------||
a||--------------------|| a||--------------------||
f||--5-5-5-5-5-5-5-5---|| f||--7-7-7-7-7-7-7-7---||
c||--5-5-5-5-5-5-5-5---|| c||--7-7-7-7-7-7-7-7---||
g||--3-3-3-3-3-3-3-3---|| g||--5-5-5-5-5-5-5-5---||
C||--------------------|| C||--------------------||

d||--------------------|| d||----------------------------||
a||--------------------|| a||----------------------------||
f||--------------------|| f||—-10-10-10-10-10-10-10-10---||
c||--8-8-8-8-8-8-8-8---|| c||—-10-10-10-10-10-10-10-10---||
g||--8-8-8-8-8-8-8-8---|| g||---8--8—-8—-8—-8—-8—-8—-8---||
C||--8-8-8-8-8-8-8-8---|| C||----------------------------||

d||--------------------|| d||--------------------||
a||--------------------|| a||--------------------||
f||--5-5-5-5-5-5-5-5---|| f||--7-7-7-7-7-7-7-7---||
c||--5-5-5-5-5-5-5-5---|| c||--7-7-7-7-7-7-7-7---||
g||--3-3-3-3-3-3-3-3---|| g||--5-5-5-5-5-5-5-5---||
C||--------------------|| C||--------------------||

d||------------------------------||
a||------------------------------||
f||------------------------------||
c||----8—-0—-8—-0—-8-8-----------||
g||----8—-0—-8—-0—-8-8-----------||
C||----8—-0—-8—-0—-8-8-----------||
(1:17)
d||-----------------------------------------||
a||-----------------------------------------||
f||-----------------------------------------||
c||-----------------------------------------|| (play 4 times)
g||--------------3--3-----1--0--------------||
C||--0--2--3--0--------3--------------------||
Pm . . . . . . . . . . . . . .
(1:28)
d||-----5----||
a||-----5----||
f||----------|| (play 29 times)
c||----------||
g||----------||
C||----------||

(1:48)
d||--------------------|| d|--------------------||
a||--------------------|| a||--------------------||
f||--5-5-5-5-5-5-5-5---|| f||--7-7-7-7-7-7-7-7---||
c||--5-5-5-5-5-5-5-5---|| c||--7-7-7-7-7-7-7-7---||
g||--3-3-3-3-3-3-3-3---|| g||--5-5-5-5-5-5-5-5---||
C||--------------------|| C||--------------------||

d||--------------------|| d||----------------------------||
a||--------------------|| a||----------------------------||
f||--------------------|| f||—-10-10-10-10-10-10-10-10---||
c||--8-8-8-8-8-8-8-8---|| c||—-10-10-10-10-10-10-10-10---||
g||--8-8-8-8-8-8-8-8---|| g||---8--8—-8—-8—-8—-8—-8—-8---||
C||--8-8-8-8-8-8-8-8---|| C||----------------------------||

d||-------------------- d||--------------------||
a||-------------------- a||--------------------||
f||--5-5-5-5-5-5-5-5--- f||--7-7-7-7-7-7-7-7---||
c||--5-5-5-5-5-5-5-5--- c||--7-7-7-7-7-7-7-7---||
g||--3-3-3-3-3-3-3-3--- g||--5-5-5-5-5-5-5-5---||
C||-------------------- C||--------------------||

d||------------------------------||
a||------------------------------||
f||------------------------------||
c||----8—-0—-8—-0—-8-8-----------||
g||----8—-0—-8—-0—-8-8-----------||
C||----8—-0—-8—-0—-8-8-----------||

d||--------------------|| d||--------------------||
a||--------------------|| a||--------------------||
f||--5-5-5-5-5-5-5-5---|| f||--7-7-7-7-7-7-7-7---||
c||--5-5-5-5-5-5-5-5---|| c||--7-7-7-7-7-7-7-7---||
g||--3-3-3-3-3-3-3-3---|| g||--5-5-5-5-5-5-5-5---||
C||--------------------|| C||--------------------||

d||--------------------|| d||----------------------------||
a||--------------------|| a||----------------------------||
f||--------------------|| f||—-10-10-10-10-10-10-10-10---||
c||--8-8-8-8-8-8-8-8---|| c||—-10-10-10-10-10-10-10-10---||
g||--8-8-8-8-8-8-8-8---|| g||---8--8—-8—-8—-8—-8—-8—-8---||
C||--8-8-8-8-8-8-8-8---|| C||----------------------------||

d||--------------------|| d||--------------------||
a||--------------------|| a||--------------------||
f||--5-5-5-5-5-5-5-5---|| f||--7-7-7-7-7-7-7-7---||
c||--5-5-5-5-5-5-5-5---|| c||--7-7-7-7-7-7-7-7---||
g||--3-3-3-3-3-3-3-3---|| g||--5-5-5-5-5-5-5-5---||
C||--------------------|| C||--------------------||

d||------------------------------||
a||------------------------------||
f||------------------------------|| (play 7 times)
c||----8—-0—-8—-0—-8-8-----------||
g||----8—-0—-8—-0—-8-8-----------||
C||----8—-0—-8—-0—-8-8-----------||
(2:18)
d||-------------------------------------||
a||—15----------------------------------||
f||-----14--15--12-14-15----------------||
c||-------------------------------------|| (play 2 times)
g||-------------------------------------||
C||-------------------------------------||

d||----------17-15-12-13--------------------||
a||--15-----------------------15------------||
f||------14--------------------------14-----||
c||-----------------------------------------||
g||-----------------------------------------||
C||-----------------------------------------||
(2:25)
d||-------------------------------------||
a||—15----------------------------------||
f||-----14--15--12-14-15----------------||
c||-------------------------------------|| (play 2 times)
g||-------------------------------------||
C||-------------------------------------||

d||-------17-15-12-13--------------------------------------||
a||-15-----------------15-14-13-12-15-15-14-14-13-13-12-12-||
f||---14---------------------------------------------------||
c||--------------------------------------------------------||
g||--------------------------------------------------------||
C||--------------------------------------------------------||

(2:33)
d||--------------------|| d||--------------------||
a||--------------------|| a||--------------------||
f||--5-5-5-5-5-5-5-5---|| f||--7-7-7-7-7-7-7-7---||
c||--5-5-5-5-5-5-5-5---|| c||--7-7-7-7-7-7-7-7---||
g||--3-3-3-3-3-3-3-3---|| g||--5-5-5-5-5-5-5-5---||
C||--------------------|| C||--------------------||

d||--------------------|| d||----------------------------||
a||--------------------|| a||----------------------------||
f||--------------------|| f||—-10-10-10-10-10-10-10-10---||
c||--8-8-8-8-8-8-8-8---|| c||—-10-10-10-10-10-10-10-10---||
g||--8-8-8-8-8-8-8-8---|| g||---8--8—-8—-8—-8—-8—-8—-8---||
C||--8-8-8-8-8-8-8-8---|| C||----------------------------||

d||--------------------|| d||--------------------||
a||--------------------|| a||--------------------||
f||--5-5-5-5-5-5-5-5---|| f||--7-7-7-7-7-7-7-7---||
c||--5-5-5-5-5-5-5-5---|| c||--7-7-7-7-7-7-7-7---||
g||--3-3-3-3-3-3-3-3---|| g||--5-5-5-5-5-5-5-5---||
C||--------------------|| C||--------------------||

d||------------------------------||
a||------------------------------||
f||------------------------------||
c||----8—-0—-8—-0—-8-8-----------||
g||----8—-0—-8—-0—-8-8-----------||
C||----8—-0—-8—-0—-8-8-----------||

d||--------------------|| d||--------------------||
a||--------------------|| a||--------------------||
f||--5-5-5-5-5-5-5-5---|| f||--7-7-7-7-7-7-7-7---||
c||--5-5-5-5-5-5-5-5---|| c||--7-7-7-7-7-7-7-7---||
g||--3-3-3-3-3-3-3-3---|| g||--5-5-5-5-5-5-5-5---||
C||--------------------|| C||--------------------||

d||--------------------|| d||----------------------------||
a||--------------------|| a||----------------------------||
f||--------------------|| f||—-10-10-10-10-10-10-10-10---||
c||--8-8-8-8-8-8-8-8---|| c||—-10-10-10-10-10-10-10-10---||
g||--8-8-8-8-8-8-8-8---|| g||---8--8—-8—-8—-8—-8—-8—-8---||
C||--8-8-8-8-8-8-8-8---|| C||----------------------------||

d||--------------------|| d||--------------------||
a||--------------------|| a||--------------------||
f||--5-5-5-5-5-5-5-5---|| f||--7-7-7-7-7-7-7-7---||
c||--5-5-5-5-5-5-5-5---|| c||--7-7-7-7-7-7-7-7---||
g||--3-3-3-3-3-3-3-3---|| g||--5-5-5-5-5-5-5-5---||
C||--------------------|| C||--------------------||

d||------------------------------||
a||------------------------------||
f||------------------------------||
c||----8—-0—-8—-0—-8-8-----------||
g||----8—-0—-8—-0—-8-8-----------||
C||----8—-0—-8—-0—-8-8-----------||
(2:49)
d||-----------------------------------------||
a||-----------------------------------------||
f||-----------------------------------------||
c||-----------------------------------------|| (play 4 times)
g||--------------3--3-----1--0--------------||
C||--0--2--3--0--------3--------------------||
Pm . . . . . . . . . . . . . .