Stop Censorship
 
 

 
 1-9 a b c d e f g h i j k l m n o p q r s t u v w x y z
   System Of A Down - Mind Tab    

Play on Top String
|-5--7-5-7-8-8-8-8-8-| X4

Then keep the bass above repeating, and add on the bottom string

|-9-9-7-| X3 this is wear he sings "let me, feel you, look at eachother"
|-9-9-10-11-12-| X3

Then have |-9-7-9-7-9-7-| fading out as he sings "look at eachother..look at eachother"

Go Away"
D|-----------|
A|-----------|
F|-----------|
C|-0-0-0-----|
G|-0-0-0-----|
C|-0-0-0-----|

CHORUS:

D|---------------------------|
A|---------------------------|
F|---------------------------|
C|-0---1-3----0---3-2-1-0----|
G|-0---1-3----0---3-2-1-0----|
C|-0---1-3----0---3-2-1-0----|
pm.......

1ST VERSE:

D|--------------|-----------------|
A|-----12^------|-------15--------|
F|-12^----------|--16^-----16^----|

BRIDGE 1:

D|-------------------------|
A|-------------------------|
F|-------------------------|
C|--0-0-0-0-0-0-0-0-6-6-6--| palm mute in and out
G|--0-0-0-0-0-0-0-0-6-6-6--| you should be able to tell
C|--0-0-0-0-0-0-0-0-6-6-6--|

BRIDGE 2:

D|------------------------------|
A|------------------------------|
F|------------------------------|
C|-7-x-6-7-x-6-7-7-7-x-6-7-x-6--|
G|-7-x-6-7-x-6-7-7-7-x-6-7-x-6--|
C|-7-x-6-7-x-6-7-7-7-x-6-7-x-6--|

2ND VERSE:

D|----------------------|---------|-------------------------------|
A|------------12---12---|-12------|--12p10h12p10-repeat-vey-fast--|
F|-12---12--------------|-----14--|-------------------------------|

then repeat chorus