Stop Censorship
 
 

 
 1-9 a b c d e f g h i j k l m n o p q r s t u v w x y z
   System Of A Down - Mind Tab    

-=Mind=-
========
This song`s tuning is drop D; then all strings down one whole step
(C-G-C-F-A-D)


Artist: System of a down
Release: System of a down
Transcribed by: Benjamin Marschner
Email: Leerebirne@web.de
HP: www.systemofadowntabs.de.vu


A

1:-------------|-------------|-----------------|-------------------|----------------|
2:----8--7b8r7-|----8--7b8r7-|----8-----7-8-10-|----7-8-10-8-7-----|--8-7b8r7-------|
3:--5----5-----|--5----5-----|--5-----7--------|--7------------7-5-|------------7-5-|
4:-------------|-------------|-----------------|-------------------|----------------|
5:-------------|-------------|-----------------|-------------------|----------------|
6:-------------|-------------|-----------------|-------------------|----------------|

1:------------|-------------------|----------------|
2:-----7-8-10-|----7-8-10-8-7-----|--8-7b8r7-------|
3:---7--------|--7------------7-5-|------------7-5-|
4:------------|-------------------|----------------|
5:------------|-------------------|----------------|
6:------------|-------------------|----------------|

1:--------------|------------|---------------|----------------|
2:----8---7b8r7-|----8---7---|---8---7-------|----8---7-------|
3:--5---5-5-----|--5---5-5---|-5---5----7--5-|--5---5----7--5-|
4:--------------|------------|---------------|----------------|
5:--------------|------------|---------------|----------------|
6:--------------|------------|---------------|----------------|

around 24x:
1:----------|
2:----8---7-|
3:--5---5---|
4:----------|
5:----------|
6:----------|


B

1:----------------|
2:----------------|
3:----------------|
4:-88888--0--0--0-|
5:-88888--0--0--0-|
6:-88888--0--0--0-|


C
1:---------------------|-------------------|
2:---------------------|-------------------|
3:---------------------|-------------------|
4:--0--3-3--0--3-2-1-0-|-0--3-3--0--3-2-1--|
5:--0--3-3--0--3-2-1-0-|-0--3-3--0--3-2-1--|
6:--0--3-3--0--3-2-1-0-|-0--3-3--0--3-2-1--|


D
1:----------|----------|----------|-----------|
2:------12~-|------12~-|------12~-|------ah12-| (ah stands for `artificial harmonic`)
3:-12~------|-12~------|-12~------|-12~-------|
4:----------|----------|----------|-----------|
5:----------|----------|----------|-----------|
6:----------|----------|----------|-----------|


1:----------|----------|--------10-|--------10-|--------10-|--------10-|--------10-|-----|
2:------12~-|------12~-|--12b13----|--12b13----|--12b13----|--12b13----|--12b13----|-b13-|
3:-12~------|-12~------|-----------|-----------|-----------|-----------|-----------|-----|
4:----------|----------|-----------|-----------|-----------|-----------|-----------|-----|
5:----------|----------|-----------|-----------|-----------|-----------|-----------|-----|
6:----------|----------|-----------|-----------|-----------|-----------|-----------|-----|


E
4x: 1x:
1:-------------------------------|---|
2:-------------------------------|---|
3:-------------------------------|---|
4:--0-0-0-3-0-0-0-0-0-3-0-0-6--6-|-6-|
5:--0-0-0-3-0-0-0-0-0-3-0-0-6--6-|-6-|
6:--0-0-0-3-0-0-0-0-0-3-0-0-6--6-|-6-|


F
1:-------------------|
2:-------------------|
3:-------------------|
4:-7^6-67-67-66667-7-|
5:-7^6-67-67-66667-7-|
6:-7^6-67-67-66667-7-|


G
1:--------------|--------------|--------------|-----------|
2:--------12-12-|--------12-12-|--------12-12-|--------12-|
3:-12-12--------|-12-12--------|-12-12--------|-12-12-----|
4:--------------|--------------|--------------|-----------|
5:--------------|--------------|--------------|-----------|
6:--------------|--------------|--------------|-----------|

1:--------------|--------------------------------------------|
2:--------12-12-|--------12^10^12^10^12^10^12^10^12^10^12^10-|
3:-12-12--------|-12-12--------------------------------------|
4:--------------|--------------------------------------------|
5:--------------|--------------------------------------------|
6:--------------|--------------------------------------------|

8x:
1:--------------|
2:-12^10^12^10^-|
3:--------------|
4:--------------|
5:--------------|
6:--------------|


H
1:---------------------|---------------------|---------------------|
2:---------------------|---------------------|---------------------|
3:---------------------|---------------------|---------------------|
4:---------------------|---------------------|---------------------|
5:---------------------|---------------------|---------------------|
6:-7--67--67--66667-7--|-7--67--67--66667-7--|-7--67--67--66667-7--|

1:-----------------|---------------------------|-------------------|--------------|
2:-----------------|---------------------------|-------------------|--------------|
3:-----------------|---------------------------|-------------------|--------------|
4:-----------------|---------------------------|-7^6-67-67-67-67-7-|-7^6-67-67-67-|
5:-----------------|---------------------------|-7^6-67-67-67-67-7-|-7^6-67-67-67-|
6:7--67--67--66667-|-67--67--67--67--67--67--6-|-7^6-67-67-67-67-7-|-7^6-67-67-67-|


I
1:------------------|
2:------------------|
3:------------------|
4:------------------|
5:------5-5--4-4--3-|
6:-0--------------0-|



ORDER:
======

A
B 4x
C 2x
D
C 4x
E
F 4x
B 4x
C 2x
G
C 4x
E
F 8x
H
F 8x
I 4x