Stop Censorship
 
 

 
 1-9 a b c d e f g h i j k l m n o p q r s t u v w x y z
   System Of A Down - Mr. Jack Tab    

Title: Mr. Jack
Artist: System Of A Down
Album: Steal This Album

Tabbed By: Andrew Welsh (welshy20@hotmail.com)

Tuning: Drop C (C,G,C,F,A,D)

I----------------I
I KEY I
I I
I PM = Palm Mute I
I / = Slide I
I I
I----------------I

INTRO:
(Altered From Bass)
D|-----------------------------------------------
A|-----------------------------------------------
F|--10/9---9/7---7---7---7-8---5---5---7---7---7-
C|-------0-----0---0---0-----0---0---0---0---0---
G|-----------------------------------------------
C|-0---------------------------------------------x8

INTRO (Background)
(Starts Playing After 3rd Time Of Intro)
x5
D|-----I---------------------------------------------------
A|-8-7-I-7777777101010101010101212121212121215151515151515-
F|-----I-7777777101010101010101212121212121215151515151515-
C|-----I---------------------------------------------------
G|-----I---------------------------------------------------
C|-----I---------------------------------------------------

BRIDGE:
D|------------------
A|------------------
F|------------------
C|-0--7--3--8-7-8-7-
G|-0--7--3--8-7-8-7-
C|-0--7--3--8-7-8-7-x8

VERSE:
D|------------------------------------
A|------------------------------------
F|------------------------------------
C|-0--7--3--8-7-8-7--0--7--3--8-7-8-7-
G|-0--7--3--8-7-8-7--0--7--3--8-7-8-7-
C|-0--7--3--8-7-8-7--0--7--3--8-7-8-7-
PM...................................
"Hey Mr Jack Is that The..."

D|------------------------------------
A|------------------------------------
F|------------------------------------
C|-0--7--3--8-7-8-7--0--7--3--8-7-8-7-
G|-0--7--3--8-7-8-7--0--7--3--8-7-8-7-
C|-0--7--3--8-7-8-7--0--7--3--8-7-8-7-
PM...................................
"Hey Mr Jack Is that The..."

D|------------------------------------
A|------------------------------------
F|------------------------------------
C|-0--7--3--8-7-8-7--0--7--3--8-7-8-7-
G|-0--7--3--8-7-8-7--0--7--3--8-7-8-7-
C|-0--7--3--8-7-8-7--0--7--3--8-7-8-7-
PM...................................
"Hey Where You At On The Side..."

D|------------------------------------
A|------------------------------------
F|------------------------------------
C|-0--7--3--8-7-8-7--0--7--3--8-7-8-7-
G|-0--7--3--8-7-8-7--0--7--3--8-7-8-7-
C|-0--7--3--8-7-8-7--0--7--3--8-7-8-7-
PM...................................
"Hey Where You At On The Side..."

CHORUS:
D|------------------------------------
A|------------------------------------
F|------------------------------------
C|-0--7--3--8-7-8-7--0--7--3--8-7-8-7-
G|-0--7--3--8-7-8-7--0--7--3--8-7-8-7-
C|-0--7--3--8-7-8-7--0--7--3--8-7-8-7-
"...Car"

D|------------------------------------
A|------------------------------------
F|------------------------------------
C|-0--7--3--8-7-8-7--0--7--3--8-7-8-7-
G|-0--7--3--8-7-8-7--0--7--3--8-7-8-7-
C|-0--7--3--8-7-8-7--0--7--3--8-7-8-7-
"In The Car..."

D|------------------------------------
A|------------------------------------
F|------------------------------------
C|-0--7--3--8-7-8-7--0--7--3--8-7-8-7-
G|-0--7--3--8-7-8-7--0--7--3--8-7-8-7-
C|-0--7--3--8-7-8-7--0--7--3--8-7-8-7-
"On The Side Of The Freeway In The"

VERSE:
D|------------------------------------
A|------------------------------------
F|------------------------------------
C|-0--7--3--8-7-8-7--0--7--3--8-7-8-7-
G|-0--7--3--8-7-8-7--0--7--3--8-7-8-7-
C|-0--7--3--8-7-8-7--0--7--3--8-7-8-7-
PM...................................
"Hey Mr Jack Is that The..."

D|------------------------------------
A|------------------------------------
F|------------------------------------
C|-0--7--3--8-7-8-7--0--7--3--8-7-8-7-
G|-0--7--3--8-7-8-7--0--7--3--8-7-8-7-
C|-0--7--3--8-7-8-7--0--7--3--8-7-8-7-
PM...................................
"Hey Mr Jack Is that The..."

D|------------------------------------
A|------------------------------------
F|------------------------------------
C|-0--7--3--8-7-8-7--0--7--3--8-7-8-7-
G|-0--7--3--8-7-8-7--0--7--3--8-7-8-7-
C|-0--7--3--8-7-8-7--0--7--3--8-7-8-7-
PM...................................
"Hey Where You At On The Side..."

D|------------------------------------
A|------------------------------------
F|------------------------------------
C|-0--7--3--8-7-8-7--0--7--3--8-7-8-7-
G|-0--7--3--8-7-8-7--0--7--3--8-7-8-7-
C|-0--7--3--8-7-8-7--0--7--3--8-7-8-7-
PM...................................
"Hey Where You At On The Side..."

CHORUS:
D|------------------------------------
A|------------------------------------
F|------------------------------------
C|-0--7--3--8-7-8-7--0--7--3--8-7-8-7-
G|-0--7--3--8-7-8-7--0--7--3--8-7-8-7-
C|-0--7--3--8-7-8-7--0--7--3--8-7-8-7-
"...The Car"

D|------------------------------------
A|------------------------------------
F|------------------------------------
C|-0--7--3--8-7-8-7--0--7--3--8-7-8-7-
G|-0--7--3--8-7-8-7--0--7--3--8-7-8-7-
C|-0--7--3--8-7-8-7--0--7--3--8-7-8-7-
"In The Car"

D|------------------------------------
A|------------------------------------
F|------------------------------------
C|-0--7--3--8-7-8-7--0--7--3--8-7-8-7-
G|-0--7--3--8-7-8-7--0--7--3--8-7-8-7-
C|-0--7--3--8-7-8-7--0--7--3--8-7-8-7-
"On The Side Of The Freeway

D|------------------------------------
A|------------------------------------
F|------------------------------------
C|-0--7--3--8-7-8-7--0--7--3--8-7-8-7-
G|-0--7--3--8-7-8-7--0--7--3--8-7-8-7-
C|-0--7--3--8-7-8-7--0--7--3--8-7-8-7-
"In The Car"

D|------------------------------------
A|------------------------------------
F|------------------------------------
C|-0--7--3--8-7-8-7--0--7--3--8-7-8-7-
G|-0--7--3--8-7-8-7--0--7--3--8-7-8-7-
C|-0--7--3--8-7-8-7--0--7--3--8-7-8-7-

INTERLUDE:
D|------------------------------------------------------------------
A|------------------------------------------------------------------
F|-----10-----9-----7-----7---8-7-------5-----5-----7-----7-----7---
C|-0-0----0-0---0-0---0-0---0-----0-0-0---0-0---0-0---0-0---0-0---0-
G|------------------------------------------------------------------
C|------------------------------------------------------------------

D|------------------------------------------------------------------
A|------------------------------------------------------------------
F|-----10-----9-----7-----7---8-7-------5-----5-----7-----7-----7---
C|-0-0----0-0---0-0---0-0---0-----0-0-0---0-0---0-0---0-0---0-0---0-
G|------------------------------------------------------------------
C|------------------------------------------------------------------

D|------------------------------------------------------------------
A|------------------------------------------------------------------
F|-----10-----9-----7-----7---8-7-------5-----5-----7-----7-----7---
C|-0-0----0-0---0-0---0-0---0-----0-0-0---0-0---0-0---0-0---0-0---0-
G|------------------------------------------------------------------
C|------------------------------------------------------------------
"7 AM Moring, Came To Take Us Away"

D|------------------------------------------------------------------
A|------------------------------------------------------------------
F|-----10-----9-----7-----7---8-7-------5-----5-----7-----7-----7---
C|-0-0----0-0---0-0---0-0---0-----0-0-0---0-0---0-0---0-0---0-0---0-
G|------------------------------------------------------------------
C|------------------------------------------------------------------
"Little Men, Big Guns, Pointed At Our Heads"

D|------------------------------------------------------------------
A|------------------------------------------------------------------
F|-----10-----9-----7-----7---8-7-------5-----5-----7-----7-----7---
C|-0-0----0-0---0-0---0-0---0-----0-0-0---0-0---0-0---0-0---0-0---0-
G|------------------------------------------------------------------
C|------------------------------------------------------------------
"7 AM Moring, Came To Take Us Away"

D|------------------------------------------------------------------
A|------------------------------------------------------------------
F|-----10-----9-----7-----7---8-7-------5-----5-----7-----7-----7---
C|-0-0----0-0---0-0---0-0---0-----0-0-0---0-0---0-0---0-0---0-0---0-
G|------------------------------------------------------------------
C|------------------------------------------------------------------
"Little Men, Big Guns, Pointed At Our"

BREAK DOWN:
D|-------------------
A|-------------------
F|-------------------
C|-0-0-7-7-3-3-8-7-8-
G|-0-0-7-7-3-3-8-7-8-
C|-0-0-7-7-3-3-8-7-8-
"...Heads"

D|-------------------
A|-------------------
F|-------------------
C|-0-0-7-7-3-3-8-7-8-
G|-0-0-7-7-3-3-8-7-8-
C|-0-0-7-7-3-3-8-7-8-

D|-------------------
A|-------------------
F|-------------------
C|-0-0-7-7-3-3-8-7-8-
G|-0-0-7-7-3-3-8-7-8-
C|-0-0-7-7-3-3-8-7-8-
"Heads..."

D|-------------------
A|-------------------
F|-------------------
C|-0-0-7-7-3-3-8-7-8-
G|-0-0-7-7-3-3-8-7-8-
C|-0-0-7-7-3-3-8-7-8-
"At Our..."

D|-------------------
A|-------------------
F|-------------------
C|-0-0-7-7-3-3-8-7-8-
G|-0-0-7-7-3-3-8-7-8-
C|-0-0-7-7-3-3-8-7-8-

D|-------------------
A|-------------------
F|-------------------
C|-0-0-7-7-3-3-8-7-8-
G|-0-0-7-7-3-3-8-7-8-
C|-0-0-7-7-3-3-8-7-8-
"At Our..."

D|-------------------
A|-------------------
F|-------------------
C|-0-0-7-7-3-3-8-7-8-
G|-0-0-7-7-3-3-8-7-8-
C|-0-0-7-7-3-3-8-7-8-
"Heads"

D|---------------
A|---------------
F|---------------
C|-0-0-7-7-3-3-8-
G|-0-0-7-7-3-3-8-
C|-0-0-7-7-3-3-8-

VERSE:
D|-----------------------------
A|-----------------------------
F|-----------------------------
C|-0-1-0---0-1-0---------------
G|-0-1-0---0-1-0---------------
C|-0-1-0---0-1-0-000000-000000-
"Your Prospect Of Living Gone"


D|------------------------------
A|------------------------------
F|------------------------------
C|-0-1-0---0-1-0----------------
G|-0-1-0---0-1-0----------------
C|-0-1-0---0-1-0---0-0-0--0-0-0-
"You Ran The Light At Dawn"


D|-----------------------------
A|-----------------------------
F|-----------------------------
C|-0-1-0---0-1-0---------------
G|-0-1-0---0-1-0---------------
C|-0-1-0---0-1-0-000000-000000-
"Protectors On Your Back


D|------------------------------
A|------------------------------
F|------------------------------
C|-0-1-0---0-1-0----------------
G|-0-1-0---0-1-0----------------
C|-0-1-0---0-1-0---0-0-0--0-0-0-
"Lights Are On Their Track"


D|-----------------------------
A|-----------------------------
F|-----------------------------
C|-0-1-0---0-1-0---------------
G|-0-1-0---0-1-0---------------
C|-0-1-0---0-1-0-000000-000000-
"You Must Now Face Authority"


D|------------------------------
A|------------------------------
F|------------------------------
C|-0-1-0---0-1-0----------------
G|-0-1-0---0-1-0----------------
C|-0-1-0---0-1-0---0-0-0--0-0-0-
"You`re Nothing Like Me"


D|-----------------------------
A|-----------------------------
F|-----------------------------
C|-0-1-0---0-1-0---------------
G|-0-1-0---0-1-0---------------
C|-0-1-0---0-1-0-000000-000000-
"You Must Now Face Authority"

D|------------------------------
A|------------------------------
F|------------------------------
C|-0-1-0---0-1-0----------------
G|-0-1-0---0-1-0----------------
C|-0-1-0---0-1-0---0-0-0--0-0-0-
"You`re Nothing Like Me"

D|---------------------
A|---------------------
F|---------------------
C|-------7---7-3-3-3-8-
G|-------7---7-3-3-3-8-
C|-0-000-7---7-3-3-3-8-
P|Y|H|U G|O|O|T|C
u|o|a|p e|u|f|h|a
t|u|n t|t e|r
r|d
s
D|---------------------
A|---------------------
F|---------------------
C|-------7---7-3-3-3-8-
G|-------7---7-3-3-3-8-
C|-0-0-0-7---7-3-3-3-8-
P|Y|H|U G|O|O|T|C
u|o|a|p e|u|f|h|a
t|u|n t|t e|r
r|d
s
D|---------------------
A|---------------------
F|---------------------
C|-------7---7-3-3-3-8-
G|-------7---7-3-3-3-8-
C|-0-0-0-7---7-3-3-3-8-
P|Y|H|U G|O|O|T|C
u|o|a|p e|u|f|h|a
t|u|n t|t e|r
r|d
s

OUTRO:
D|------------
A|------------
F|------------
C|-0--7--3--8-
G|-0--7--3--8-
C|-0--7--3--8-
F| Y |P
*| o |i
*| u |g
k
D|------------
A|------------
F|------------
C|-0--7--3--8-
G|-0--7--3--8-
C|-0--7--3--8-
F| Y |P
*| o |i
*| u |g
k
D|------------
A|------------
F|------------
C|-0--7--3--8-
G|-0--7--3--8-
C|-0--7--3--8-
F| Y |P
*| o |i
*| u |g
k
D|------------
A|------------
F|------------
C|-0--7--3--8-
G|-0--7--3--8-
C|-0--7--3--8-
F| Y |P
*| o |i
*| u |g
k

ENDING:
D|------------------------
A|------------------------
F|------------------------
C|-0--7--3--8--0--7--3--8-
G|-0--7--3--8--0--7--3--8-
C|-0--7--3--8--0--7--3--8-
"Put Your Hands Up..."