Stop Censorship
 
 

 
 1-9 a b c d e f g h i j k l m n o p q r s t u v w x y z
   System Of A Down - Mr. Jack Tab    

Song: "Mr. Jack"
Artist: System of A Down
Album: Steal This Album
Transcribed By: Bryan Bramlett (bryanmb87@aol.com)

Tuning: Drop D, Down 1 Step (C,G,C,F,A,D)

INTRO: (bass arranged for guitar)
|-----------------------------------------------|
|-----------------------------------------------|
|-----------------------------------------------|
|-----------------------------------------------|
|---8p7---7p5---5---5--6-5---3---3---5---5--6-5-|
|-0-----0-----0---0--------0---0---0---0--------|

INTRO: (guitar) (* - play 1st time only)
|-------------------------------------------------------|
|-87-7-7-7---7-77/1010-10-10---10-1010/1212-12-12---12-|
|-----X-X-------XX-X--X--X----------X-X-X--X--X---------|
|-----4-4---4---44/7--7--7----7-----7-7/9--9--9----9----|
|-------------------------------------------------------|
|-------------------------------------------------------|

|---------------------------------|
|-1212/1515-151515-15-17-17-17-15-|
|--X-X--X-X--X-X-X--X--X--X--X--X-|
|--9-9/1212-121212-12-14-14-14-12-|
|---------------------------------|
|---------------------------------|

|---------------------------------------------------|
|-7-7-7---7-77/1010-10-10---10-1010/1212-12-12---12-|
|-X-X-------XX-X--X--X----------X-X-X--X--X---------|
|-4-4---4---44/7--7--7----7-----7-7/9--9--9----9----|
|---------------------------------------------------|
|---------------------------------------------------|

|------------------------|
|-1212/1515-151515-15-17-|
|--X-X--X-X--X-X-X--X--X-|
|--9-9/1212-121212-12-14-|
|------------------------|
|------------------------|

BRIDGE:
|----------------------------------|
|----------------------------------|
|----------------------------------|
|-0--7--3-----------0--7--3------8-|
|-0--7--3--8-7-8-7--0--7--3--8-7-8-|
|-0--7--3--8-7-8-7--0--7--3--8-7-8-|

VERSE: (palm mute)
|-----------------------------------------------|
|-----------------------------------------------|
|-----------------------------------------------|
|-----------------------------------------------|
|-0--0-7--0-3--00-8-7-8-7-0--0-7--0-3--00-8-7-8-|
|-0--0-7--0-3--00-8-7-8-7-0--0-7--0-3--00-8-7-8-|

VERSE B:
|----------------------------------|
|----------------------------------|
|----------------------------------|
|----------------------------------|
|-0--7--3--8-7-8-7--0--7--3--8-7-8-|
|-0--7--3--8-7-8-7--0--7--3--8-7-8-|

INTERLUDE:
|--------------------------------------------------------------|
|--------------------------------------------------------------|
|-----10p9---9p7---7-----7---8-7-----5-----5-----7-----7-----7-|
|-0-0------0-----0---0-0---0-----0-0---0-0---0-0---0-0---0-0---|
|--------------------------------------------------------------|
|--------------------------------------------------------------|

INTERLUDE 2:
|----------------------|
|----------------------|
|----------------------|
|-0--0-7--7-3--3-8-7-8-|
|-0--0-7--7-3--3-8-7-8-|
|-0--0-7--7-3--3-8-7-8-|

INTERLUDE 2 FILL:
|------------------|
|------------------|
|------------------|
|-0--0-7--7-3--3-8-|
|-0--0-7--7-3--3-8-|
|-0--0-7--7-3--3-8-|

INTERLUDE 3: (palm mute)
|-------------------------------------------------|
|-------------------------------------------------|
|-------------------------------------------------|
|-0-1-1-0-1-1-------------0-1-1-0-1-1-------------|
|-0-1-1-0-1-1-00000-00000-0-1-1-0-1-1-1-0-0-1-0-0-|
|-0-1-1-0-1-1-00000-00000-0-1-1-0-1-1-1-0-0-1-0-0-|

|---------------------------------------------|
|---------------------------------------------|
|---------------------------------------------|
|-0-1-1-0-1-1-------------0-1-1-0-1-1---------|
|-0-1-1-0-1-1-00000-00000-0-1-1-0-1-1-0-000-7-|
|-0-1-1-0-1-1-00000-00000-0-1-1-0-1-1-0-000-7-|

INTERLUDE 4:
|---------------------|
|---------------------|
|---------------------|
|-0-0-0-7--7-3-3-3-/8-|
|-0-0-0-7--7-3-3-3-/8-|
|-0-0-0-7--7-3-3-3-/8-|

INTERLUDE 5:
|-------------|
|-------------|
|-------------|
|-0--7--3--/8-|
|-0--7--3--/8-|
|-0--7--3--/8-|