Stop Censorship
 
 

 
 1-9 a b c d e f g h i j k l m n o p q r s t u v w x y z
   System Of A Down - Needles Tab    



intro
|-4p3--4p3--4p3--4p3--4p3--4p3--4p3--4p3--4p3--4p3--4p3--4p3--4p3--4p3-|
|----3----3----3----3----3----3----3----3----3----3----3----3----3----3|
|----------------------------------------------------------------------|
|----------------------------------------------------------------------|
|----------------------------------------------------------------------|
|----------------------------------------------------------------------|


preverse 1
|-----------------------------------|
|-----------------------------------|
|-----------------------------------|
|-55-6-5-6-5-6-5-6-55-6-5-6-5-6-5-6-|
|-55-6-5-6-5-6-5-6-55-6-5-6-5-6-5-6-|
|-55-6-5-6-5-6-5-6-55-6-5-6-5-6-5-6-|


preverse 2
|-------------------------------------------------|
|-------------------------------------------------|
|-------------------------------------------------|
|-------------------------------------------------|
|-------------------------------------------------|
|-6p5p0-6p5p0-6p5p0-6p5p0-6p5p0-6p5p0-6p5p0-6p5p0-|


verse
|--------------------------------------------------|
|--------------------------------------------------|
|--------------------------------------------------|
|--5--6--5--6--5--6--5--6--5--6--5--6--5--6--5--6--|
|--5--6--5--6--5--6--5--6--5--6--5--6--5--6--5--6--|
|--5--6--5--6--5--6--5--6--5--6--5--6--5--6--5--6--|


prechorus
|---------------------------------------|
|---------------------------------------|
|---------------------------------------|
|-5-13--1-13--------------------------|
|-5-13--1-13--6-----6-----6-----6-----|
|-5-13--1-13--6-0-0-6-0-0-6-0-0-6-0-0-| repeat once


chorus
|-----------------------------|
|-----------------------------|
|-----------------------------|
|-5--5-6--3--3-5-6-6-8-5------|
|-5--5-6--3--3-5-6-6-8-5------|
|-5--5-6--3--3-5-6-6-8-5--15-| repeat twice


interlude
|-------------------------------------------------|
|-------------------------------------------------|
|---8-7---8p0---------------7-6---7p0-------------|
|-5-----5-------5-4---5p0 4-----4-------5-4---5p0-|
|-------------6-----6-----------------5-----5-----|
|-------------------------------------------------|


outro
|-------------------------------------------------------------------|
|-------------------------------------------------------------------|
|-------------------------------------------------------------------|
|---------------------------------55-6-5-6-5-6-5-6-55-6-5-6-5-6-5-6-|
|---------------------------------55-6-5-6-5-6-5-6-55-6-5-6-5-6-5-6-|
|5-5-6-6-8-8-6-6-5-5-3-3-6-6-5-5--55-6-5-6-5-6-5-6-55-6-5-6-5-6-5-6-|



Order: Intro
Preverse 1
Preverse 2
Verse
Preverse 2
Preverse 1
Prechorus
Chorus
Preverse 1
Preverse 2
Verse
Preverse 2
Verse
Prechorus
Chorus
Interlude
Preverse 1
Preverse 2
Prechorus
Chorus
Outro

It seems kinda confusin here but when u hear and play it, it will be less confusing.