Stop Censorship
 
 

 
 1-9 a b c d e f g h i j k l m n o p q r s t u v w x y z
   System Of A Down - P.L.U.C.K. Tab    

SONG: P.L.U.C.K.
BAND: System Of A Down
ALBUM: System Of A Down
TRANSCRIBED BY: lenny careu

----------------------------------------------------------------------------------------------

TUNING: tune your guitar down one full step and then drop d (C,G,C,F,A,D)


INTRO:

D|---------------------------------|
A|---------------------------------| ** palm mute throughout and
F|--9-9-9-9-9-9-9-9-9-9-9-9-9-9-9--| graduately release at end of
C|---------------------------------| bar
G|---------------------------------|
C|---------------------------------|

(play three times) (play once)
D|-----------------------------------------|--------------------------|
A|-----------------------------------------|--------------------------|
F|-----------------------------------------|--------------------------|
C|--2-2-2-2-2-2-2-2-2-2-2-2--2--2--2--2--2-|--2-2-2-2-2-2-2-2-2-2-2-2-|
G|--2-2-2-2-2-2-2-2-2-2-2-2--2--2--2--2--2-|--2-2-2-2-2-2-2-2-2-2-2-2-|
C|--2-2-2-2-2-2-2-2-2-2-2-2--2--2--2--2--2-|--2-2-2-2-2-2-2-2-2-2-2-2-|
pm.......................

D|--------------------------|
A|--------------------------|
F|--------------------------|
C|--2-2-2-2-2-2-2-2-2-2-2-2-|
G|--2-2-2-2-2-2-2-2-2-2-2-2-|
C|--2-2-2-2-2-2-2-2-2-2-2-2-|
pm...............

D|--------------------------|
A|--------------------------|
F|--------------------------|
C|--2-2-2-2-2-2-2-2-2-2-2h3-|
G|--2-2-2-2-2-2-2-2-2-2-2h3-|
C|--2-2-2-2-2-2-2-2-2-2-2h3-|
pm...

VERSE:

D|-------------------------------------------------|
A|-------------------------------------------------|
F|--7/9-9-9-99/13-13-13-1313/15-15-15-10/13-13-13--|
C|-------------------------------------------------|
G|--5/7-7-7-77/11-11-11-1111/13-13-13--8/11-11-11--|
C|-------------------------------------------------|

CHORUS:

D|--------------|
A|--------------|
F|--------------|
C|--2-2-2-2-0-2-|
G|--2-2-2-2-0-2-|
C|--2-2-2-2-0-2-|
pm.......

INTERLUDE/OUTRO:

D|------------------------------------------|---------|
A|------------------------------------------|---------|
F|------------------------------------------|---------|
C|--2-2-2-2------------------5--5--5-5--3-3-|-3-3-3-3-|
G|--2-2-2-2----3-3-3-3/5/3-0-5--5--5-5--3-3-|-3-3-3-3-|
C|--2-2-2-2------------------5--5--5-5--3-3-|-3-3-3-3-|