Stop Censorship
 
 

 
 1-9 a b c d e f g h i j k l m n o p q r s t u v w x y z
   System Of A Down - Peephole Tab    

I dont tab this but i think this the correct tab for Peephole

Jose Luis Mireles C
System of a down

PEEP-HOLE


Intro guitare

|--------------------------------------------------|
|-----3-----3-----3-----3-----3-----3-----3-----3--|
|---3-----3-----3-----3-----3-----3-----3-----3----|
|-5-----5------------------------------------------|
|-------------4-----5-----0-----0-----4-----5------|
|--------------------------------------------------|

Couplet
Basse
|---------------------------------------------------------|
|---------------------------------------------------------|
|---------------------------------------------------------|
|-5---0---5---0---5---0---5---0---4-4-4-4-4-4-7-7-7-7-7-7-|
|
|---------------------------------------------------------|
|---3---3---3---3---3---3---3---3-------------------------|
|---3---3---3---3---3---3---3---3-------------------------|
|---5---5---5---5---5---5---5---5-------------------------|
|---5---5---5---5---5---5---5---5-4-4-4-4-4-4-7-7-7-7-7-7-|
|---------------------------------4-4-4-4-4-4-7-7-7-7-7-7-|
|When your stars are baked...

|------------------
|------------------
|------------------
|------6-7-----6-7-
|-5-5--4-5--7--4-5-
|-5-5-------7------


|----------------------------------------------|
|----------------------------------------------|
|----------------------------------------------|
|---------------6-6-7-7----------------6-6-7-7-|
|-5--5-5-5-5--5-4-4-5-5-7--7-7-7-7--7--4-4-5-5-|
|-5--5-5-5-5--5---------7--7-7-7-7--7----------|

|--------------------------------------------------------------|
|--------------------------------------------------------------|
|--------------------------------------------------------------|
|---------------6-6-7-7----------------6-6-7-7--10-8-7-8-7-5-7-|
|-5--5-5-5-5--5-4-4-5-5-7--7-7-7-7--7--4-4-5-5--8--6-5-6-5-3-5-|
|-5--5-5-5-5--5---------7--7-7-7-7--7--------------------------|




Solo
|--------------------------------------------------|
|-------------------14-14-15-15--------------------|
|-12-12-12-12-12-12-------------12-12-12-12-12-12--|
|--------------------------------------------------|
|--------------------------------------------------|
|--------------------------------------------------|

|--------------------------------------------------|
|-14-15-15-15-18-18-18-18-18-18-18-18--------------|
|-------------------------20-20-20-20--------------|
|--------------------------------------------------|
|--------------------------------------------------|
|--------------------------------------------------|

|---------------|-------|---------------------------------------|
|---------------|-------|---------------------------------------|
|-7-8-7h8p7/5-7-|-jouer-|-5-3-2-3-2-0---------------------------|
|---------------|--3-X--|-------------4-------------------------|
|---------------|-puis--|---------------4-4-4-4-4-4-7-7-7-7-7-7-|
|---------------|-------|---------------4-4-4-4-4-4-7-7-7-7-7-7-|

|-10-11-10h11p10/8-10-|-------|-8-6-5-6-5-3-2-
|---------------------|-------|---------------
|---------------------|-jouer-|---------------
|---------------------|--3-X--|---------------
|---------------------|-puis--|---------------
|---------------------|-------|---------------
Harm - - - - - - -
------------------------------------------------------------------------
-----15--15--15--15------14--14--14--14---14-14-14--14-14-14--14-14-14-
-12----12--12--12---12-11--11--11--11-----------------------------------
------------------------------------------------------------------------
------------------------------------------------------------------------
------------------------------------------------------------------------

------------------------------------------------------------------------
-----15--15--15--15------14--14--14--14--------13-1315-13---11-1113-11
-12----12--12--12---12-11--11--11--11----11-10-------------8------------
------------------------------------------------------------------------
------------------------------------------------------------------------
------------------------------------------------------------------------

-----------------
--15-15-15-------
--12-12-12-------
-----------------
-----------------
-----------------