Stop Censorship
 
 

 
 1-9 a b c d e f g h i j k l m n o p q r s t u v w x y z
   System Of A Down - Roulette Tab    

Intro/Verse
|--------------------------------------------------------|
|---6-----6-------10-----5-------8-----8-----3-------5---| x4
|--------------------------------------------------------|
|--------------------------------------------------------|
|-5---5-5---5-5/8----0-3---3-3/6---6-6---61---1-1/3---3-|
|--------------------------------------------------------|

Chorus
|---------------------------------------------------|
|---6-----6-----2-----2-----5-----5-----3-------5---| x2
|---------------------------------------------------|
|---------------------------------------------------|
|-5---5-5---5-0---0-0---0-3---3-3---3-1---1-1/3---3-|
|---------------------------------------------------|

Pre-verse/Verse
|--------------------------------------------------------|
|---6-----6-------10-----5-------8-----8-----3-------5---| x4
|--------------------------------------------------------|
|--------------------------------------------------------|
|-5---5-5---5-5/8----0-3---3-3/6---6-6---61---1-1/3---3-|
|--------------------------------------------------------|

Chorus:
|---------------------------------------------------|
|---6-----6-----2-----2-----5-----5-----3-------5---| x4
|---------------------------------------------------|
|---------------------------------------------------|
|-5---5-5---5-0---0-0---0-3---3-3---3-1---1-1/3---3-|
|---------------------------------------------------|

Solo - Guitar 1
|--------------------------------------------------------|
|---6-----6-------10-----5-------8-----8-----3-------5---| x4
|--------------------------------------------------------|
|--------------------------------------------------------|
|-5---5-5---5-5/8----0-3---3-3/6---6-6---61---1-1/3---3-|
|--------------------------------------------------------|

Solo - Guitar 2
|-10---10-12-13---12-13-15---12-13-15-13--12--10--12--13-13-12-12-10---------|
|---------------------------------------------------------------------10--10-|
|----------------------------------------------------------------------------|
|----------------------------------------------------------------------------|
|----------------------------------------------------------------------------|
|----------------------------------------------------------------------------|

|------------------------------------------------6-65-53-31-1-|
|-10-11-13-11--10--8--10--11-11-10-10-8----------8-86-65-53-3-|
|----------------------------------------------------------------|
|----------------------------------------10--10------------------|
|----------------------------------------------------------------|
|----------------------------------------------------------------|
Email me at m4n237nrejiw@aol.com

Chorus
|---------------------------------------------------|
|---6-----6-----2-----2-----5-----5-----3-------5---| x4
|---------------------------------------------------|
|---------------------------------------------------|
|-5---5-5---5-0---0-0---0-3---3-3---3-1---1-1/3---3-|
|---------------------------------------------------|

Verse/Outro
|--------------------------------------------------------| |-1-|
|---6-----6-------10-----5-------8-----8-----3-------5---| x4 |-3-|
|--------------------------------------------------------| |-2-|
|--------------------------------------------------------| |-0-|
|-5---5-5---5-5/8----0-3---3-3/6---6-6---61---1-1/3---3-| |---|
|--------------------------------------------------------| |---|