Stop Censorship
 
 

 
 1-9 a b c d e f g h i j k l m n o p q r s t u v w x y z
   System Of A Down - Roulette Tab    

Band : System Of A Down
Song: Roulette

I tabbed this song out set for standard tuning because the guitarist uses 1 full step down tuning and if you have a guitar like me with a floyd rose bridge tuning all the strings down can be a pain. So here it is.

Just something else, I find it easier to fingerpick this but that might just be me
p= pull off
/= slide


Intro/Verse:
e-------------------3---------------------------------------------------
B-----4-------4p-------------3--------6--------6------------------------
G----------------------------------------------------------5--------7---
D----------------1-----0------------------------------------------------
A--3-----3--3-------------1-----1/-4-----4--4-----0---------------------
E-------------------------------------------------------4-----4/-6-----6
Repeat this as needed


Chorus:

e-----------------------------------------------------------------------
B-----4--------4-------------------------3--------3---------------------
G----------------------4--------4--------------------------5--------7---
D-----------------------------------------------------------------------
A--3-----3--3----0--------------------1-----1--1-----0------------------
E-------------------3-----3--3-----0--------------------4-----4/-6-----6

thatís basically it enjoy