Stop Censorship
 
 

 
 1-9 a b c d e f g h i j k l m n o p q r s t u v w x y z
   System Of A Down - Science Tab    

Artist: System of a Down
Song. Science
drop D
Tabbed by Lice

Intro:
e----8-------------------------------------------------------------------
B------------------------------------------------------------------------
G------------------------------------------------------------------------
D------------------------------------------------------------------------ 2x
A------------10--10--10--10--10--10--10--10--10--10--10--10--10--10------
D------------10--10--10--10--10--10--10--10--10--10--10--10--10--10------

e-----8------------------------------------
B-----------------------------------------
G------------------------------------------
D------------------------------------------ 2x
A------------10--10--10--10--10--10--------
D------------10--10--10--10--10--10--------

e------8------------------
B-------------------------
G-------------------------
D------------------------- 4x
A------------10--10-------
D------------10--10-------

Riff 1:
e------------------------------|---------------------------------------
B------------------------------|---------------------------------------
G------------------------------|---------------------------------------
D----10--10--10--10--10--10--10|--------------------------------------- 2x
A----10--10--10--10--10--10--10|-3x--------------5--6--8--6--5--------
D----10--10--10--10--10--10--10|----------6--8------------------------

Riff 2:
e---------------------------------------------------------------------
B---------------------------------------------------------------------
G---------------------------------------------------------------------
D-----11----10--10--10--10--10--10--10--10--10--10--10--10--10--10---- 2x
A-----11----10--10--10--10--10--10--10--10--10--10--10--10--10--10----
D-----11----10--10--10--10--10--10--10--10--10--10--10--10--10--10----

e---------------------------------------
B---------------------------------------
G---------------------------------------
D----11-----10--10--10--10--10--10------
A----11-----10--10--10--10--10--10------ 2x
D----11-----10--10--10--10--10--10------

e--------------------------
B-------------------------
G-------------------------
D---11-----10--10------
A---11-----10--10------ 4x
D---11-----10--10------

Riff 3:
e------------------------------------------------------
B------------------------------------------------------
G------------------------------------------------------
D----10----12----13------------------------------------
A----10----12----13------------------5--6--8--6--5-----
D----10----12----13---------6---8----------------------

Song Order:
Intro
Riff 1: 2x
Riff 2: 2x
Riff 1: 2x
Riff 2
Riff 1: 2x
Riff 3: 2x
Riff 1: 2x
Part of riff 2
Riff 3: 3x