Stop Censorship
 
 

 
 1-9 a b c d e f g h i j k l m n o p q r s t u v w x y z
   System Of A Down - Shame Tab    

Shame System ft. DMX
-----10---10----10----10---11----------
--------------10----10-----------------
---------------------------------------
---------------------------------------
---------------------------------------
---------------------------------------


----------------------------------------------
----------------------------------------------
----------------------------------------------
--------0-2-0-0-0----------------0-0-0-0------
--------0-2-0-0-0----------------0-0-0-0------
--------0-2-0-0-0----------------0-0-0-0------



--------10---10---10---10---11---------
--------10---10---10---10--------------
---------------------------------------
---------------------------------------
---------------------------------------
---------------------------------------



-----------------------------
-----------------------------
-----------------------------
------0---0---0---0-1--------
------0---0---0---0-1--------
------0---0---0---0-1--------


-------------------------------------------------------------------------------
-------------------------------------------------------------------------------
-------------------------------------------------------------------------------
---15-15-15-15-15-15--16-16-16-16-16-16--17-17-17-17-17-17--16-16-16-16-16-16--
---13-13-13-13-13-13--14-14-14-14-14-14--15-15-15-15-15-15--17-17-17-17-17-17--
--------------------------------------------------------------------------------