Stop Censorship
 
 

 
 1-9 a b c d e f g h i j k l m n o p q r s t u v w x y z
   System Of A Down - Shimmy Tab    

BITCHIN` TABS

URL: www.angelfire.com/goth/btab/
EMAIL: btabmaster@hotmail.com

THIS IS AN EXCLUSIVE TAB TO "BITCHIN` TABS"

----------------------------------------------------------------------------------------------

SONG: Shimmy
BAND: System of a Down
ALBUM: Toxicity
TRANSCRIBED BY: Chris Frazier (btabmaster@hotmail.com)
DATE: 08-10-2K1

----------------------------------------------------------------------------------------------

TUNING: Drop D and down 1 step (C G C F A D)

Riff 1:
D|------|
A|------|
F|------|
C|------|
G|------|
C|-3200-|
PM----

Riff 2:
D|------|
A|------|
F|------|
C|-3200-|
G|-3200-|
C|-3200-|
PM----

Riff 3:
D|--------------------------|
A|--------------------------|
F|--------------------------|
C|-2-2-/6-6--2-2-/6-6-6-6-6-|
G|-2-2-/6-6--2-2-/6-6-6-6-6-|
C|-2-2-/6-6--2-2-/6-6-6-6-6-|

Riff 4:
D|------------------|
A|------------------|
F|------------------|
C|------------------|
G|------------------|
C|-3202-3202-3202-3-|
PM---- ---- ---- -

Riff 5:
D|------------------|
A|------------------|
F|------------------|
C|--2-3-2-0---------|
G|----------3-2-0---|
C|----------------6-|

Riff 6:
D|-----------------|
A|-----------------|
F|-----0-2-0-------|
C|-2-3-------3-2-0-|
G|-----------------|
C|-----------------|

Riff 8:
D|---------------------------------|
A|---------------------------------|
F|-----0-2-0-----------------------|
C|-2-3-------3-2-0-----------------|
G|-----------------3-2-0-----------|
C|-----------------------6-5-4-3-0-|

Riff 9:
D|---|
A|---|
F|---|
C|-2-|
G|-2-|
C|-2-|
PM-

Riff 10:
D|------------------|
A|------------------|
F|------------------|
C|--2-3-2-0---------|
G|----------3-2-0---|
C|----------------6-|
PM - - - - - - - -