Stop Censorship
 
 

 
 1-9 a b c d e f g h i j k l m n o p q r s t u v w x y z
   System Of A Down - Spiders Tab    
System of a Down
Spiders
Tune Guitar to CGCFAD
By Kyle Knerr
**In order to produce Daron’s sound on this song, I recommend using a Bass Overdrive for your distortion, a volume pedal for the swells, and a wah for the solo**
INTRO ONLY Play entire intro sigment 3 times

D|--------------------------------------|
A|--------------------------------------|
F|--------------------------------------|
C|--------------------------------------| Play this twice, then
G|-----7-----7-----5-----5----5---------|
C|--0-----0-----0-----0-----0---0-------|

D|-------------------------------------------|
A|-------------------------------------------|
F|-------------------------------------------|
C|-------------------------------------------|
G|-----8-----7-----10-----8-----7—8----------|
C|--0------0------0------0-----0-------------|

D|--------------------------------------|
A|--------------------------------------|
F|--------------------------------------|
C|--------------------------------------|
G|-----7-----7-----5-----5-----5--------|
C|--0-----0------0-----0-----0----0-----|

CHORUS **Note: the tab for this section does not adequately show
the rhythm, so listen to the song for the correct one**
VOLUME SWELL
D|--------------------------------------|
A|--------------------------------------|
F|--------------------------------------|
C|--------------------------------------|
G|--10—10—10—10-10-10-10-10—10-10-10—10-|
C|--10—10—10—10-10-10-10-10—10-10-10—10-|

VOLUME DIMINISHED
D|----------------------------------------------------|
A|----------------------------------------------------|
F|-----14---12---15----14----12/14---12---12-14—-10*--| *= repeat
C|------X----X----X-----X-----X/------X----X—-----X*--| approximately
G|-----12---10---13----12----10/12---10---10/12---8*--| 8 times
C|--0----------------0-----0-------0------------------|
VOLUME SWELL
VERSE
D|--------------------------------------------------------|
A|--------------------------------------------------------| *= repeat
F|--------------------------------------------------------| 8 times
C|--------------------------------------------------------|
G|--10-10-10-10—10-10—10-10-10-10-10-10-8-8-8-8-8-8-8-7*--|
C|--10-10-10-10—10-10—10-10-10-10-10-10—8-8-8-8-8—8-8-7*--|



VOLUME DIMINISHED
D|------------------------|
A|------------------------|
F|---9---9---7---7---7-7--| X4
C|---X---X---X---X---X-X--|
G|---7--—7---5---5---5-5--|
C|--0---0---0---0---0-----|


D|----------------------------------------------------|
A|----------------------------------------------------|
F|-----14---12---15----14----12/14---12---12-14—-10*--| *= repeat
C|------X----X----X-----X-----X/------X----X—-----X*--| approximately
G|-----12---10---13----12----10/12---10---10/12---8*--| 8 times
C|--0----------------0-----0-------0------------------|


D|------------------------|
A|------------------------|
F|---9---9---7---7---7-7--| X2
C|---X---X---X---X---X-X--|
G|---7--—7---5---5---5-5--|
C|--0---0---0---0---0-----|

D|----------------------------------------------------|
A|----------------------------------------------------|
F|-----14---12---15----14----12/14---12---12-14—-10*--| *= repeat
C|------X----X----X-----X-----X/------X----X—-----X*--| approximately
G|-----12---10---13----12----10/12---10---10/12---8*--| 8 times
C|--0----------------0-----0-------0------------------|

VOLUME SWELL
D|--------------------------------------|
A|--------------------------------------|
F|--------------------------------------|
C|--------------------------------------|
G|--10—10—10—10-10-10-10-10—10-10-10—10-|
C|--10—10—10—10-10-10-10-10—10-10-10—10-|
VOLUME DIMINISHED
D|----------------------------------------------------|
A|----------------------------------------------------|
F|-----14---12---15----14----12/14---12---12-14—-10*--| *= repeat
C|------X----X----X-----X-----X/------X----X—-----X*--| approximately
G|-----12---10---13----12----10/12---10---10/12---8*--| 8 times
C|--0------------------------------0------------------|
VOLUME SWELL
D|--------------------------------------------------------|
A|--------------------------------------------------------| *= repeat
F|--------------------------------------------------------| 8 times
C|--------------------------------------------------------|
G|--10-10-10-10—10-10—10-10-10-10-10-10-8-8-8-8-8-8-8-7*--|
C|--10-10-10-10—10-10—10-10-10-10-10-10—8-8-8-8-8—8-8-7*--|



SOLO: In order to produce the same effect a Daron, use slight wah on
this solo…slight as in barely noticeable, but on the CD if you
listen carefully, you can hear it.

**Hit each chord multiple times** listen to CD for specific timings.

D|-----------------------------------------|
A|-----------------------------------------|
F|--14-----15-----18-----14-----15-----18--|
C|---X------X------X------X------X------X--|
G|--12-----13-----16-----12-----13-----16--|
C|-----------------------------------------|

Alternate strings from first finger to third, but play multiple times as again rhythm hard to produce on paper, so listen to CD.

D|-----------------------------------------| |----------------
A|-----------------------------------------| |----------------
F|--19-----20-----18-----19-----20-----18--| example |-----19----19---
C|---X------X------X------X------X------X--| |----------------
G|--17-----18-----16-----17-----18-----16--| |--17-----17-----
C|-----------------------------------------| |----------------

OUTRO


D|--------------------------------------|
A|--------------------------------------|
F|--------------------------------------|
C|--------------------------------------|
G|--10—10—10—10-10-10-10-10—10-10-10—10-|
C|--10—10—10—10-10-10-10-10—10-10-10—10-|


D|----------------------------------------------------|
A|----------------------------------------------------|
F|-----14---12---15----14----12/14---12---12-14—-10*--| *= repeat
C|------X----X----X-----X-----X/------X----X—-----X*--| approximately
G|-----12---10---13----12----10/12---10---10/12---8*--| 8 times
C|--0------------------------------0------------------|

D|--------------------------------------------------------|
A|--------------------------------------------------------| *= repeat
F|--------------------------------------------------------| 8 times
C|--------------------------------------------------------|
G|--10-10-10-10—10-10—10-10-10-10-10-10-8-8-8-8-8-8-8-7*--|
C|--10-10-10-10—10-10—10-10-10-10-10-10—8-8-8-8-8—8-8-7*--|

D|----------------------------------------------------|
A|----------------------------------------------------|
F|-----14---12---15----14----12/14---12---12-14—-10*--| *= repeat
C|------X----X----X-----X-----X/------X----X—-----X*--| approximately
G|-----12---10---13----12----10/12---10---10/12---8*--| 8 times
C|--0------------------------------0------------------|




D|--------------------------------------------------------|
A|--------------------------------------------------------| *= repeat
F|--------------------------------------------------------| 8 times
C|--------------------------------------------------------|
G|--10-10-10-10—10-10—10-10-10-10-10-10-8-8-8-8-8-8-8-7*--|
C|--10-10-10-10—10-10—10-10-10-10-10-10—8-8-8-8-8—8-8-7*--|

VOLUME DIMINISHED
D|------------------------|
A|------------------------|
F|---9---9---7---7---7-7--| X4
C|---X---X---X---X---X-X--|
G|---7--—7---5---5---5-5--|
C|--0---0---0---0---0-----|

D|--------------------------------------------------------------|
A|--------------------------------------------------------------|
F|----10-----9-----12----10-----9/10---9----9/10---7---7---7-7--|
C|-----X-----X------X-----X-----X------X----X------X---X---X-X--|
G|-----8-----7-----10-----8-----7/-8---7----7/-8---5---5---5-5--|
C|--0-----0------0-----0-----0--------0-----------0---0—--------|


D|-------------------------------------------------------|
A|-------------------------------------------------------|
F|-----14----12----15----14----12/14----12---12/14---10--|
C|------X-----X-----X-----X-----X--------X----X-------X--|
G|-----12----10----13----12----10/12----10---10/12----8--|
C|----0--------------------------------0-----------------|