Stop Censorship
 
 

 
 1-9 a b c d e f g h i j k l m n o p q r s t u v w x y z
   System Of A Down - Spiders Tab    

System of a Down,Spiders. Tabbed by Coven- Band: System of a
Down SoNg : Spiders TuNiNg: DAFCGCD

note: great song, a little slow but excellent no the less, if u need words, get me on icq 47660543
D------------------------------------------|
A------------------------------------------|
F------------------------------------------|
C------------------------------------------|
G-------7---------7-------5------5-------5-|
C----0-------0--------0-------0-------0----| (do 2 times)
D------------------------------------------|

A------------------------------------------|
F------------------------------------------|
C------------------------------------------|
G------8-------7------10-------8----7---8--|
C---0-------0------0--------0----0----0----|
D------------------------------------------|

A------------------------------------------|
F------------------------------------------|
C------------------------------------------|
G------7-------7-------5-------5------5----|
C---0-------0-------0-------0------0-------|

D---------------------------------------------|
A---------------------------------------------|
F---------------------------------------------|
C---------------------------------------------|
G--10--10--10--10--10--10--10--10--10--10--10-|
C--10--10--10--10--10--10--10--10--10--10--10-|
D---------------------------------------------|

A---------------------------------------------|
F---14---12---15-----14--------12/14----------|
C---X----X----X------X---------X---X----------|
G---12--10---13-----12---------10/12----------|
C-0--------------0---------0------------------|
D------------------------------------------------|

A------------------------------------------------|
F----12----12/14--10--10--10--10--10--10--10--10-|
C----X-----X--X---X---X---X---X---X---X---X---X--|
G---10----10/12---8---8---8---8---8---8---8---8--|
C-0----------------------------------------------|
D------------------------------------------------|


thats it, pretty good n easy... have fun
A------------------------------------------------|
F------------------------------------------------|
C------------------------------------------------|
G--10--10--10--10--10--10--10--10--10--10--10----|
C--10--10--10--10--10--10--10--10--10--10--10----|
D------------------------------------------------|

A------------------------------------------------|
F------------------------------------------------|
C------------------------------------------------|
G----8-8-8-8-8---8---8---7-7-7-7-7-7-7-----------|
C----8-8-8-8-8---8---8---7-7-7-7-7-7-7-----------|
D-----------------------------------------------|

A-----------------------------------------------|
F-----9-----9------7-------7----------7---7-----|
C-----X-----X------X-------X----------X---X-----|
G-----7-----7------5-------5----------5---5-----|
C--0-----------0-------0--------0---------------|

(let ring)(guitar solo)


A-----------------------------------------------|
F----14-------15-------15/18-------------------|
C----X--------X--------X--X---------------------|
G---12-------13-------13/16--------------------|
C-----------------------------------------------|
D------------------------------------------------|

A------------------------------------------------|
F------19---19---19---19---19---19---19---19-----|
C------------------------------------------------|
G---17---17---17---17---17---17---17---17--------|
C------------------------------------------------|
D------------------------------------------------|

A------------------------------------------------|
F-----20---20---20---20---18---18---18---18------|
C------------------------------------------------|
G--18---18---18---18---16---16---16---16---------|
C------------------------------------------------| P.M.
D------------------------------------------------|

A------------------------------------------------|
F------------------------------------------------|
C------------------------------------------------|
G------0--------1-------4------------------------|
C------0--------1-------4------------------------|
D------------------------------------------------|

A------------------------------------------------|
F-----10-------9/12----10--------9/10------------|
C-----X--------X--X----X---------X-X-------------|
G-----8--------7/10----8---------7/8-------------|
C---0----------------0--------0------------------| (let ring)
D------------------------------------------------|

A------------------------------------------------|
F---14------12--------15---------14-----12/14----|
C---X-------X---------X----------X------X--X-----|
G--12------10--------13----------12----10-/12----| (let ring)
D------------------------------------------------|

A------------------------------------------------|
F------12---------12/14----------10--------------|
C------X----------X--X-----------X---------------|
G-----10---------10-/12----------8---------------|
C--0---------------------------------------------|