Stop Censorship
 
 

 
 1-9 a b c d e f g h i j k l m n o p q r s t u v w x y z
   System Of A Down - Streamline Tab    

Song: "Streamline"
Artist: System of A Down
Album: Steal This Album
Transcribed By: Bryan Bramlett (bryanmb87@aol.com)

Tuning: Drop D, Down 1 Step (C,G,C,F,A,D)

INTRO: (* - play 1st time only)
|----------------| |-------------|
|----------------|play|-------------|
|----------------| 7x |-------------|
|----------------|then|-------------|
|----------------| |-8-8-8-8-7-5-|
|-*0*-0-/7-0-0-3-| |-8-8-8-8-7-5-|

CHORUS: (* - play 1st time only)
|----------------| |-------------|
|----------------|play|-------------|
|----------------| 7x |-------------|
|----------------|then|-8-8-8-8-7-5-|
|-*0*-0-/7-0-0-3-| |-8-8-8-8-7-5-|
|-*0*-0-/7-0-0-3-| |-8-8-8-8-7-5-|

VERSE:
|-----5-----5-----5-----5-----5-----5-----6-----3-|
|---7-----7-----7-----7-----7-----7-----6-----3---|
|-------------------------------------------------|
|-0-----0-----0-----0-----0-----0-----8-----5-----|
|-------------------------------------------------|
|-------------------------------------------------|

FILL:
|-------------|
|-------------|
|-------------|
|-5-5-5-5-5-5-|
|-5-5-5-5-5-5-|
|-5-5-5-5-5-5-|

CHORUS B: (* - play 1st time only)
|----------------| |-------------|
|----------------|play|-------------|
|----------------| 3x |-------------|
|----------------|then|-8-8-8-8-7-5-|
|-*0*-0-/7-0-0-3-| |-8-8-8-8-7-5-|
|-*0*-0-/7-0-0-3-| |-8-8-8-8-7-5-|

SOLO BACKGROUND: (palm mute)
|-------------| |-------------|
|-------------|play|-------------|
|-------------| x |-------------|
|-0-00-00-0-0-|then|-8-8-8-5-5-5-|
|-0-00-00-0-0-| |-8-8-8-5-5-5-|
|-0-00-00-0-0-| |-8-8-8-5-5-5-|

SOLO BACKGROUND 2: (palm mute)
|-----------------|
|-----------------|
|-----------------|
|-5-5-5-5-5-5-5-5-|
|-5-5-5-5-5-5-5-5-|
|-5-5-5-5-5-5-5-5-|

SOLO:
|---------------------------------------------------------------|
|-10-10-10-10-10-10--15----17----18-----20-18-17-18-17h18p17-15-|
|-----------------------14----14----14--------------------------|
|---------------------------------------------------------------|
|---------------------------------------------------------------|
|---------------------------------------------------------------|

|---------------------------------------18----------------------------|
|-15----17----18-----20-18-17-18-17-18-----17-18-17h18p17----17-------|
|----14----14----14---------------------------------------19----19-17-|
|---------------------------------------------------------------------|
|---------------------------------------------------------------------|
|---------------------------------------------------------------------|

|-18------------------------------------------------------------------|
|----17-18-17h18p17----17--------15----17----18-----20-18-17-18-17-18-|
|-------------------19----19-17-----14----14----14--------------------|
|---------------------------------------------------------------------|
|---------------------------------------------------------------------|
|---------------------------------------------------------------------|

|-18-----------------------------18----------------------------|
|----17-18-17h18p17----17-----------17-18-17h18p17----17-------|
|-------------------19----19-17--------------------19----19-17-|
|--------------------------------------------------------------|
|--------------------------------------------------------------|
|--------------------------------------------------------------|

SOLO B:
|-18-18-18----------------------------------|
|----------17-17-17-18-17h18p17----17-------|
|-------------------------------19----19-17-|
|-------------------------------------------|
|-------------------------------------------|
|-------------------------------------------|
pm.. .. .. .. .. ..

SOLO B FILL:
|-18-18-18----------------------|
|----------17-17-17-------------|
|-------------------------------|
|-------------------5-5-5-5-5-5-|
|-------------------5-5-5-5-5-5-|
|-------------------5-5-5-5-5-5-|
pm.. .. .. .. .. ..