Stop Censorship
 
 

 
 1-9 a b c d e f g h i j k l m n o p q r s t u v w x y z
   System Of A Down - Streamline Tab    

Song: Steamline Solo
Band: System of a Down
Guitarist: Daron Malakian metal GOD
Tuning: drop D minus a step [go figure]



|--8---10---11----13-11-10-11-10-8-8---10---11---13-11-10-11-10-8-15----------
|----8----8----8---------------------8----8----8---------------------15-16----
|-----------------------------------------------------------------------------
|-----------------------------------------------------------------------------
|-----------------------------------------------------------------------------
|-----------------------------------------------------------------------------

|----------------15----------------------8---10---11---13-11-10-11-10-8-------
|-15-13-15-13-------15-16-15-13-15-13------8----8----8------------------------
|-------------15----------------------15--------------------------------------
|-----------------------------------------------------------------------------
|-----------------------------------------------------------------------------
|-----------------------------------------------------------------------------

|--15----------------------15-------------------------------------------------
|-----15-16-15-13-15-13-------15-16-15-13-15-13-------------------------------
|-----------------------15----------------------15----------------------------
|-----------------------------------------------------------------------------
|-----------------------------------------------------------------------------
|-----------------------------------------------------------------------------

then i just palm mute these strings
|-12-12-12--------------------------------------------------------------------
|-12-12-12--------------------------------------------------------------------
|-12-12-12--------------------------------------------------------------------
|-----------------------------------------------------------------------------
|-----------------------------------------------------------------------------
|-----------------------------------------------------------------------------


This is the best i could do for this specific tab, Kody don`t even think about it.
-Scott K