Stop Censorship
 
 

 
 1-9 a b c d e f g h i j k l m n o p q r s t u v w x y z
   System Of A Down - Suite Pee Tab    

Song: Suite-Pee
Artist: System of a down
Tabbed by : Fender Tender
Tuning : C G C F A D

The top string is tuned down two whole steps and the rest are tuned down
one whole step.


Intro ( all harmonics )

D-------------------------------------------------------------------------
A-------------------------------------------------------------------------
F--12///5\12--------------------------------------------------------
C-------------------12///5\12--------------------12///5\12----
G------------------------------------12///5\12----------------------
C-------------------------------------------------------------------------

For the intro you start on the 12 harmonic then slide up the fretboard to
the 5th fret and then back down to twelve. Dont play the frets just slide
up and down till you reach that fret and pickup up random harmonics as
your sliding. Pick very fast.


Riff 1

D--------------------- X 3 THEN D--------------------------
A--------------------- A--------------------------
F--------------------- F--------------------------
C--0--0--0--0--1--0--1 C--0--0--0--0--1--0--1--0--
G--0--0--0--0--1--0--1 G--0--0--0--0--1--0--1--0--
C--0--0--0--0--1--0--1 C--0--0--0--0--1--0--1--0--


Riff 2

D----------------------------|-------------------------10^---------
A----------------------------|-------------------------------------
F-----7--7--7--7--8--7--8----|---7---7--7--7--8--7-----------------
C----------------------------|-------------------------------------
G----------------------------|-------------------------------------
C----------------------------|-------------------------------------


Bridge bass riff
F------------------
C------------------
G------------------
C--0--1--0--0--5--4


Riff 3 (Guitar comes in)
D------------------
A------------------
F------------------
C--0--1--0--0--5--4
G--0--1--0--0--5--4
C--0--1--0--0--5--4 then.......

The same riff but Palm Muted

D------------------
A------------------
F----Palm Muted----
C--0--1--0--0--5--4
G--0--1--0--0--5--4
C--0--1--0--0--5--4 During this there is a little fill in which the
guitar goes...

Fill

D------------------------
A------------------------
F------------------------
C---------5---4^---------
G------------------------
C------------------------

Then its Riff 3 again and when he starts to sing again another lead
guitar riff comes in

Riff 4
A.H. ( Artificial Harmonic )
D----------------------------------
A----------------------------------
F-----7--8--7---7-----12--11---11^-
C----------------------------------
G----------------------------------
C----------------------------------

Riff 5

D-------------------------
A-------------------------
F-------------------------
C-----0-------------------
G-----0-------------------
C-----0-------------------


Last Verse: do the second measure of riff 2 faster until the end




Order:
Intro
Riff 1
Riff 2
Riff 1
Riff 2
Bass Bridge part
Riff 3
Fill riff
Riff 3 palm muted then.....
Riff 3 with Riff 4
Riff 2 playing the beginning only once slightly faster
Then end on Riff 5