Stop Censorship
 
 

 
 1-9 a b c d e f g h i j k l m n o p q r s t u v w x y z
   System Of A Down - Thetawaves Tab    

Theta waves LISTEN TO SONG TO GET RIGHT BEAT!!!
Tabbed by ILYAD
Solo I cant believe the other solos are bad, dan I tabbed this out before the CD even came out decided to put it up I’m pretty sure it is perfectly right though …

|-5-5-5-5---7-7--8-8--7-7-7-7-------------------------------|
|--------------------------------------6--7------------------------| ring I lil longer
|-------------------------------------------------------------------|
|-------------------------------------------------------------------|
|-------------------------------------------------------------------|
|-------------------------------------------------------------------|


|-5-5-5-5---7-7--8-8--7-7-7-7-------------------------------|
|----------------------------------------12------------------------| ring alot ….
|---------------------------------------------------------------- ---|
|----------------------------------------------------------------- --|
|----------------------------------------------------------------- --|
|--------------------------------------------------------------------|


|-5-5-5-5---7-7--8-8--7-7-7-7-------------------------------|
|--------------------------------------6--7------------------------|
|-------------------------------------------------------------------|
|-------------------------------------------------------------------|
|-------------------------------------------------------------------|
|-------------------------------------------------------------------|

|-5-5-5-5---7-7--8-8--7-7-7-7-------------------------------|
|----------------------------------------12------------------------| ring alot …. It sounds better when 12 is played once
|---------------------------------------------------------------- ---| you can add more of it if you want
|----------------------------------------------------------------- --|
|----------------------------------------------------------------- --|
|--------------------------------------------------------------------|
right here shodul eb played right after the 12 really quick just listen to song for the beat…
|--12-13-12-10-12----10-8-10-8-7-8-7--10-8-7-8-7-5-4-5-7---5-5-5-5-7-5-4--4-4-4-5-5-5-5---4--4--4--4---------I
|--------------------------------------------------------------------|
|--------------------------------------------------------------------|
|--------------------------------------------------------------------|
|--------------------------------------------------------------------|
|--------------------------------------------------------------------|