Stop Censorship
 
 

 
 1-9 a b c d e f g h i j k l m n o p q r s t u v w x y z
   System Of A Down - Toxicity Tab    

Intro
------------------------------------------------------------------
------------------------------------------------------------------
------------------------------------------------------------------
-7-7-7-7-7-7-10-10-10-10-10-10--7-7-8-8-7-7-10-10-12-12-10-10-8-8-
5-5-5-5-5-5-8--8--8--8--8--8---5-5---5---5-8--8-----8-----8--8-8--
------------------------------------------------------------------

Part 1
------------------------------------------------------------------
------------------------------------------------------------------
------------------------------------------------------------------
-----------3-3-3-3-2-2-2-2-2-2---------3-3-3-3-2-2-2-2-2-2--------
0--33220---1-1-1-1-0-0-0-0-0-0-0-33220-1-1-1-1-0-0-0-0-0-0--------
0--33220-----------------------0-33220----------------------------

------------------------------------------------------------------
------------------------------------------------------------------
-------------3-3-3-3-2-2-2-2-2-2----------------------------------
-------------1-1-1-1-0-0-0-0-0-0----------------------------------
000032000032------------------------------------------------------

Verse 1
--------------------------------------------------------------------
--------------------------------------------------------------------
--------------------------------------------------------------------
-7-7-7-7-7-7--10-10-10-10-10-10--7-7-8-8-7-7--10-10-12-12-10-10--8-8
5-5-5-5-5-5--8--8--8--8--8--8---5-5---5---5--8--8-----8-----8-----8-
--------------------------------------------------------------------

Repeat Part 1

Verse 2 (repeat verse 1)

Pre solo (repeat part 1)

Solo (pick up and down really fast)
------------------------
------------------------
------------------------
------------------------
------------------------
12-12-12-12-15-12-12-14- [x4]

Post solo
------------------------------------
------------------------------------
------------------------------------
------------------------------------
------------------------------------
000032000032000032000032000032000032

------------------------------------
------------------------------------
------------------------------------
------------------------------------
------------------------------------
0-0-0-0-3-0-0-2--------------------- [x4]

------------------------------------
------------------------------------
------------------------------------
------------------------------------
------------------------------------
000032000032000032000032000032000032

------------------------------------------------------------------
------------------------------------------------------------------
------------------------------------------------------------------
-----------3-3-3-3-2-2-2-2-2-2---------3-3-3-3-2-2-2-2-2-2--------
0--33220---1-1-1-1-0-0-0-0-0-0-0-33220-1-1-1-1-0-0-0-0-0-0--------
0--33220-----------------------0-33220----------------------------

------------------------------------
------------------------------------
------------------------------------
------------------------------------
------------------------------------
000032000032000032000032000032000032

Outro
------------------------------------
------------------------------------
------------------------------------
------------------------------------
------------------------------------
0-0-0-0-3-0-0-2--------------------- [x4]