Stop Censorship
 
 

 
 1-9 a b c d e f g h i j k l m n o p q r s t u v w x y z
   System Of A Down - Toxicity Tab    

This is my 1st tab so far and i did u the favor of tabbin so be a
pal and rate my tab.

played in drop d

%=repeat
H=hammer on
***= pull off
/=slide

verse :
e----5--5--5--5--5--5--8--8--8--8------5--5--5--6--6--5---5
b--3--3--3--3--3--3--6--6--6--6--6--3--3--3------3------3--
g--------------------------------------------------------------------
d--------------------------------------------------------------------
a--------------------------------------------------------------------
e--------------------------------------------------------------------

e----8--10---12--8---8---6---6-----------------------------------
b-6--6----6--------6--------6-------------------------------------
g--------------------------------------------------------------------
d--------------------------------------------------------------------
a--------------------------------------------------------------------
e--------------------------------------------------------------------

chorus :
e-------------------------------------------------
b--------------------------------------------------
g--------------------------------------------------
d--0--3--2--1--1--0---8--8--8--8---7--7--7--7
a--0--3--2--1--1--0---8--8--8--8---7--7--7--7
e--0--3--2--1--1--0---8--8--8--8---7--7--7--7

e-------------------------------------------------
b--------------------------------------------------
g--------------------------------------------------
d--0--3--2--1--1--0---8--8--8--8---7--7--7--7
a--0--3--2--1--1--0---8--8--8--8---7--7--7--7
e--0--3--2--1--1--0---8--8--8--8---7--7--7--7

e-----------------------------------------------------------------
b-----------------------------------------------------------------
g-----------------------------------------------------------------
d--3--2--1--2--3--3--3--3--2--1--2--3--3--3--3--8--8--8--8
a--3--2--1--2--3--3--3--3--2--1--2--3--3--3--3--8--8--8--8
e--3--2--1--2--3--3--3--3--2--1--2--3--3--3--3--8--8--8--8

e--------------
b---------------
g--------------
d--7--7--7--7
a--7--7--7--7
e--7--7--7--7

e-------------------------------------------------
b--------------------------------------------------
g--------------------------------------------------
d--0--3--2--1--1--0---8--8--8--8---7--7--7--7
a--0--3--2--1--1--0---8--8--8--8---7--7--7--7
e--0--3--2--1--1--0---8--8--8--8---7--7--7--7

crazy part (interlude) :

e----------------------------
b----------------------------
g----------------------------
d----------------------------
a--5-5-5-5--h8***--5-5-7
e-----------------------------

e-------------------------
b-------------------------
g-------------------------
d-3-2-0-2-0-0-3-2-0-2-0-0-
a-3-2-0-2-0-0-3-2-0-2-0-0-
e-3-2-0-2-0-0-3-2-0-2-0-0-



e-------------------------
b--------------------------------
g--------------------------------
d--------------------------------
a-3-2-0-2-0-0-3-2-0-2-0-0-
e-3-2-0-2-0-0-3-2-0-2-0-0-

e-------------------------
b-------------------------
g-------------------------
d-0--0-0-0-0-3-0-0-2
a-0--0-0-0-0-3-0-0-2
e-0--0-0-0-0-3-0-0-2


song order:
verse x 1
chorus x 1
verse x 3
chorus x 4
verse x 1
chorus : x 1
interlude: x 1
chorus : x1






vThis is my 1st tab so far and i did u the favor of tabbin so be a
pal and rate my tab.

played in drop d

%=repeat
H=hammer on
***= pull off
/=slide

verse :
e----5--5--5--5--5--5--8--8--8--8------5--5--5--6--6--5---5
b--3--3--3--3--3--3--6--6--6--6--6--3--3--3------3------3--
g--------------------------------------------------------------------
d--------------------------------------------------------------------
a--------------------------------------------------------------------
e--------------------------------------------------------------------

e----8--10---12--8---8---6---6-----------------------------------
b-6--6----6--------6--------6-------------------------------------
g--------------------------------------------------------------------
d--------------------------------------------------------------------
a--------------------------------------------------------------------
e--------------------------------------------------------------------

chorus :
e-------------------------------------------------
b--------------------------------------------------
g--------------------------------------------------
d--0--3--2--1--1--0---8--8--8--8---7--7--7--7
a--0--3--2--1--1--0---8--8--8--8---7--7--7--7
e--0--3--2--1--1--0---8--8--8--8---7--7--7--7

e-------------------------------------------------
b--------------------------------------------------
g--------------------------------------------------
d--0--3--2--1--1--0---8--8--8--8---7--7--7--7
a--0--3--2--1--1--0---8--8--8--8---7--7--7--7
e--0--3--2--1--1--0---8--8--8--8---7--7--7--7

e-----------------------------------------------------------------
b-----------------------------------------------------------------
g-----------------------------------------------------------------
d--3--2--1--2--3--3--3--3--2--1--2--3--3--3--3--8--8--8--8
a--3--2--1--2--3--3--3--3--2--1--2--3--3--3--3--8--8--8--8
e--3--2--1--2--3--3--3--3--2--1--2--3--3--3--3--8--8--8--8

e--------------
b---------------
g--------------
d--7--7--7--7
a--7--7--7--7
e--7--7--7--7

e-------------------------------------------------
b--------------------------------------------------
g--------------------------------------------------
d--0--3--2--1--1--0---8--8--8--8---7--7--7--7
a--0--3--2--1--1--0---8--8--8--8---7--7--7--7
e--0--3--2--1--1--0---8--8--8--8---7--7--7--7

crazy part (interlude) :

e----------------------------
b----------------------------
g----------------------------
d----------------------------
a--5-5-5-5--h8***--5-5-7
e-----------------------------

e-------------------------
b-------------------------
g-------------------------
d-3-2-0-2-0-0-3-2-0-2-0-0-
a-3-2-0-2-0-0-3-2-0-2-0-0-
e-3-2-0-2-0-0-3-2-0-2-0-0-



e-------------------------
b--------------------------------
g--------------------------------
d--------------------------------
a-3-2-0-2-0-0-3-2-0-2-0-0-
e-3-2-0-2-0-0-3-2-0-2-0-0-

e-------------------------
b-------------------------
g-------------------------
d-0--0-0-0-0-3-0-0-2
a-0--0-0-0-0-3-0-0-2
e-0--0-0-0-0-3-0-0-2


song order:
verse x 1
chorus x 1
verse x 3
chorus x 4
verse x 1
chorus : x 1
interlude: x 1
chorus : x1